» » »

Of Walking Abortion  Bass tabs (ver.3)

Artists:  A B C D E F G H I J K L M N O P Q R S T U V W X Y Z # 

Of Walking Abortion  Bass tabs (ver.3)

Manic Street Preachers
Rating:
0/5 (0 votes)
Tabs too difficult? Try these video lessons and learn fast.
                "Manic Street Preachers - Of Walking Abortion

G-|------------------------------------------------|
D-|------------------------------------------------|
A-|----------7--7--5--5---------------7--7--5--5---|
E-|-3--5--5------------------5--6--6---------------|
    Intro & Verse

G-|-----------------------------------------|
D-|-----------------------------------------|
A-|-3-3-3---3---3---3---3-3-3---3---3---3---|
E-|-----------------------------------------|

G-|-----------------------------------------|
D-|-----------------------------------------|
A-|-1-1-1---1---1---1---1-1-1---1---1---1---|
E-|-----------------------------------------|

G-|-----------------------------------------|
D-|-----------------------------------------|
A-|-3-3-3---3---3---3---3-3-3---3---3---3---|
E-|-----------------------------------------|

G-|-----------------------------------------|
D-|-----------------------------------------|
A-|-1-1-1---1---1--1--1---------------------|
E-|----------------------3--5--5--5--5------|
    Bridge / Pre-Chorus (Loser - liar - fake or phoney)

G-|----------------------------------------------|
D-|-------8---------8-----------7---------7------|
A-|-6--6-----6---6-----6--5--5-----5---5-----5---|
E-|----------------------------------------------|

E-|----------------------------------------------|
D-|-------6---------6-----------5---------5------|
A-|-4--4-----4---4-----4--3--3-----3---3-----3---|
E-|----------------------------------------------|

G-|---------------------------------------------|
D-|---------------------------------------------|
A-|-6--6--6--6----6----5--5--5--5----5----------|
E-|---------------------------------------------|

G-|---------------------------------------------|
D-|---------------------------------------------|
A-|-4--4--4--4----4----3--3--3--3----3----------|
E-|---------------------------------------------|
    Chorus

G-|---------------------------------------------|
D-|---------------------------------------------|
A-|---------------------------------------------|
E-|-5--5----6----0----3--5--5-----6------0----3-|
    End Riff A(Little people in little houses)

G-|------------------------------------------------|
D-|------------------------------------------------|
A-|------------------------------------------------|
E-|-5--5--5--6--6--0--0--3--5--5--5--6--6--0--0--3-|
    End Riff B(Who's responsible)

Tab made by Guillermo Yepes with gedit x_D
"            
Tabs too difficult? Try these video lessons and learn fast.


comments powered by Disqus
↑ Back to top | Tablatures and chords are parodies/interpretations of the original songs. You may use it for private study, scholarship, research or language learning purposes only