» » »

Motorcycle Emptiness Bass tabs (ver.1)

Artists:  A B C D E F G H I J K L M N O P Q R S T U V W X Y Z # 

Motorcycle Emptiness Bass tabs (ver.1)

Manic Street Preachers
Rating:
0/5 (0 votes)

Tabs too difficult? Try these video lessons and learn fast.
                Manic Street Preachers
Motorcycle Emptiness 
Track 4 - Generation Terrorists 

Intro

Riff A
   E                             B/D#
G-|----------------------------|----------------------------|-
D-|----------------------------|----------------------------|-
A-|-7--7--7--7-7--7-7-7--7--7--|-6--6--6--6-6--6-6-6--6--6--|-
E-|----------------------------|----------------------------|-

   C#m                           A
G-|----------------------------|----------------------------|
D-|----------------------------|----------------------------|
A-|-4--4--4--4-4--4-4-4--4--4--|-0--0--0--0-0--0-0-0--0--0--|
E-|----------------------------|----------------------------|

Intro

 | Riff A  | x2

Verse

 | Riff A  | x4

Pre-Chorus

Riff B
   C#m         E           B           A
G-|-----------|-----------|-----------|------------|-----------|
D-|-----------|-2----2----|-----------|------------|-----------|
A-|-4----4----|-----------|-2----2----|-0----0-----|-0----0----|
E-|-----------|-----------|-----------|------------|-----------|

   A
G-|-----------|-----------------|
D-|-----------|-----------------|
A-|-0----0----|---------0-0-0-0-|
E-|-----------|-----------------|


Chorus

 | Riff A   | x3

Verse 2: Repeat Verse 1

Pre-Chorus: Repeat Pre-Chorus

Chorus: Repat Chorus

Mid-Section
Riff C                              Riff D
   A             B                     C             D
G-|-------------|-------------|     G-|-------------|-------------|
D-|-------------|-------------|     D-|-------------|-------------|
A-|-0---0---0-0-|-2---2---2-2-|     A-|-3---3---3-3-|-5---5---5-5-|
E-|-------------|-------------|     E-|-------------|-------------|

Riff E 
   D
G-|---------|---------|
D-|---------|---------|
A-|-5-------|-(5)-----|
E-|---------|---------|

 | Riff C  | x2     | Riff D   | x2

 (riff C)                                  (riff C)
 (riff D)                                  (riff D)
 (riff C)                                  (riff C)
 (riff D)                                  (riff E)            

Chorus: Repeat Chorus

Solo
   E                 G                 A
G-|-----------------|-----------------|-----------------|-
D-|-----------------|-5-5-5-5-5-5-5-5-|-7-7-7-7-7-7-7-7-|-
A-|-7-7-7-7-7-7-7-7-|-----------------|-----------------|-
E-|-----------------|-----------------|-----------------|-

   E                                   G
G-|-----------------|-----------------|-----------------|-
D-|-----------------|-----------------|-5-5-5-5-5-5-5-5-|-
A-|-7-7-7-7-7-7-7-7-|-7-7-7-7-7-7-7-7-|-----------------|-
E-|-----------------|-----------------|-----------------|-

   A                 E
G-|-----------------|----------|
D-|-7-7-7-7-7-7-7-7-|----------|
A-|-----------------|----------|
E-|-----------------|-0--------|


Verse 3

Riff F
   E            B/D#         C#m          A
G-|------------|------------|------------|-----------|
D-|------------|------------|------------|-----------|
A-|-7----------|-6----------|-4----------|-0---------|
E-|------------|------------|------------|-----------|

 | Riff A  | Riff F  |

Pre-Chorus: Repeat Pre-Chorus

Chorus: Repeat Chorus x2

Outro: 

 | Riff A  | x4

   E
G-|--------|
D-|--------|
A-|-/7-----|
E-|--------|
            
Tabs too difficult? Try these video lessons and learn fast.




comments powered by Disqus
↑ Back to top | Tablatures and chords are parodies/interpretations of the original songs. You may use it for private study, scholarship, research or language learning purposes only