» » »

Jackie Collins Existential Question Time Tabs (ver.2)

Artists:  A B C D E F G H I J K L M N O P Q R S T U V W X Y Z # 

Jackie Collins Existential Question Time Tabs (ver.2)

Manic Street Preachers
Rating:
0/5 (0 votes)

Hard to play? Try these video lessons and learn fast.
                Jackie Collins Existential Question Time - Manic Street Preachers

Instrument: Guitar
Tuning: eBGDAE



CAPO ON 3RD FRET


INTRO (hamornic riff 1)

e||---------------------------------------------|
B||---------------------------------------------|
G||---------------------------------------------|
D||---------------------------------------------|
A||----5------5------5-------5------5------5----|
E||--5---9--5---9--5---9---5---9--5---9--5---9--|


VERSE

Rhythm guitar

e||--------------------------------------|
B||--------------------------------------|
G||------------------6-6-6-6-------------|
D||--2-2-2-2-6-6-6-6-6-6-6-6-4-4-4-4-----|
A||--2-2-2-2-6-6-6-6-4-4-4-4-4-4-4-4-----|
E||--0-0-0-0-4-4-4-4---------2-2-2-2-----|

Lead guitar

e||--------------------------------------------|
B||--------------------------------------------|
G||------4-----4-------------------------------|
D||--6-7---6-7---------------------4~~-7-6-4---|
A||--------------6~~-6b7b6-4~~-4-7-------------|
E||--------------------------------------------|


BRIDGE

e||-------------------------|
B||--7---4---7---4--2--0----|
G||--8---4---8---4--2--1----| x2
D||--9---6---9---6--4--2----|
A||-------------------------|
E||-------------------------|

e||-------------------------|
B||--9---5---9---5--4--2----|
G||--9---6---9---6--4--2----| x2
D||--11--7---11--7--6--4----|
A||-------------------------|
E||-------------------------|


Play harmonic riff 1


Hamornic riff 2

e||------------------------|
B||------------------------|
G||------------------------|
D||------------------------|
A||----4------4------4-----|
E||--5---3--5---3--5---3---|


Play harmonic riff 1


CHORUS

e||------------------------------------------|
B||------------------------------------------|
G||----------5-5-5-5----3-2---3-2---3-2------| x4
D||--7-7-7-7-5-5-5-5--2-----2-----2----------|
A||--7-7-7-7-3-3-3-3-------------------------|
E||--5-5-5-5---------------------------------|


Harmonic riff 3

e||------------------------|
B||------------------------|
G||------------------------|
D||------------------------|
A||----5-7---5-7---5-7-----|
E||--5-----5-----5---------|

Play harmonic riff 1
Then harmonic riff 2

And end on an E5 power chord.

There we go, that should all be 100% right. I've worked it out from this video 
Thanks to zdfhjk for playing it so superbly.

Any questions just leave a comment and I'll get back to it.


*Lyrics*

Tonight we beg, tonight we beg the question
If a married man, if a married man f**ks a Catholic
And his wife dies without knowing
Does that make him unfaithful, people?

Oh mummy what's a Sex Pistol?
Oh mummy what's a Sex Pistol?
Oh mummy what's a Sex Pistol?
Oh mummy what's a Sex Pistol?

Tonight we beg, tonight we beg the question
If a married man, if a married man f**ks a Catholic
Does that mean you've gone to seed?
Or does that mean you owe him nothing?

Oh mummy what's a Sex Pistol?
Oh mummy what's a Sex Pistol?
Oh mummy what's a Sex Pistol?
Oh mummy what's a Sex Pistol?

A situationist sisterhood of Jackie and Joan
Separates us the questions without a home
A situationist sisterhood of Jackie and Joan
Separates us the questions without a home
            
Hard to play? Try these video lessons and learn fast. | Correct




comments powered by Disqus
↑ Back to top | Tablatures and chords are parodies/interpretations of the original songs. You may use it for private study, scholarship, research or language learning purposes only