» » »

Manic Street Preachers, If White America Tabs (ver.1)

Artists:  A B C D E F G H I J K L M N O P Q R S T U V W X Y Z # 

If White America Tabs (ver.1)

Manic Street Preachers Tabs
 Rating:
4/5 (4 votes)
If White America lessons Tabs too difficult? Try these video lessons and learn fast
1
                Manic Street Preachers: IfWhiteAmericaToldTheTruthForOneDayItsWorldWouldFallApart


Riff 1
e|------------------------|
B|------------------------|
G|------------------------|
D|----24----24----24----24|
A|--24----24----24----24--|
E|24----24----24----24----|


VERSE

e|--------|
B|--------|
G|----0---|
D|---6-6-6|	Repeat this over the verse.
A|--7---7-|
E|00------|

Athe the end of the verse,play this E chord

e|-----------------------------------|
B|-----------------------------------|
G|----------------9-9-9-9-99999-99999|
D|----------------9-9-9-9-99999-99999|
A|----------------7-7-7-7-77777-77777|
E|-----------------------------------|
...moral majority!



BRIDGE
strum these chords once and let them ring out

e|-----------------------------------------------------------|
B|-----------------------------------------------------------|
G|5--------------------------9----------------4-------------5|
D|5-----------7--------------9----------------4-------------5|
A|4-----------7--------------7----------------2-------------3|
E|------------5----------------------------------------------|

  Cool groovy morning fine, tipper Gore was a friend of mine

e|-------------------------------------------------------------------------|
B|-------------------------------------------------------------------------|
G|5----------------------------9------------------------4---------------444|
D|5-----------7----------------9------------------------4---------------444|
A|4-----------7----------------7------------------------2---------------222|
E|------------5------------------------------------------------------------|

     I love a free country,the stars and stripes and an apple for mommy


CHORUS

Just let the open E string ring out but not the octaves.

e|---------------------------------------------------------------------------|
B|---------------------------------------------------------------------------|
G|9-9--9-9--11/13-13--13-13--13-14-13-13--13-13--11-9-9--9-9--9/11-11--11-11-|
D|X-X--X-X--X-/X--X---X--X---X--X--X--X---X--X---X--X-X--X-X--X/X--X---X--X--|
A|7-7--7-7--9-/11-11--11-11--11-12-11-11--11-11--9--7-7--7-7--7/9--9---9--9--|
E|0-0--0-0--0-/0 -0---0--0---0--0--0--0---0--0---0--0-0--0-0--0-0--0---0--0--|

e|--------------------------------|
B|--------------------------------|
G|-5--7-7--7-7--7-11-9-9--9-9--6-4|
D|-X--X-X--X-X--X-X--X-X--X-X--x-X|
A|-7--5-5--5-5--5-9--7-7--7-7--4-2|
E|-0--0-0--0-0--0-0--0-0--0-0--0-0|



On the second chorus,play this

e|---------------------------------------------------------------------------|
B|---------------------------------------------------------------------------|
G|9-9--9-9--11/13-13--13-13--13-14-13-13--13-13--11-9-9--9-9--9/11-11--11-11-|
D|X-X--X-X--X-/X--X---X--X---X--X--X--X---X--X---X--X-X--X-X--X/X--X---X--X--|
A|7-7--7-7--9-/11-11--11-11--11-12-11-11--11-11--9--7-7--7-7--7/9--9---9--9--|
E|0-0--0-0--0-/0 -0---0--0---0--0--0--0---0--0---0--0-0--0-0--0-0--0---0--0--|

e|--------------------------------------------|
B|--------------------------------------------|
G|-5--7-7--7-7--7-11-9-9--9-9--6-4-4-4-4-4-4-4|
D|-X--X-X--X-X--X-X--X-X--X-X--x-4-4-4-4-4-4-4|
A|-7--5-5--5-5--5-9--7-7--7-7--4-2-2-2-2-2-2-2|
E|-0--0-0--0-0--0-0--0-0--0-0--0--------------|

FILL (after second chorus)

e|-----------------------------|
B|-----------------------------|
G|-----------------------------|   Repeat this but only
D|-----------------------------|   play the first two notes 				  
A|------7---4---5--------------|   (on the fifth fret) the first time.
E|5-5-0---0---0---0-5-0-3-0-7-0|

Now play Riff 1 from the start again.

End with 	e|---|
		B|---|
		G|7-7|	Ring out.
		D|7-7|
		A|5-5|
		E|---|
            
Submit corrections

comments powered by Disqus
↑ Back to top | Manic Street Preachers Tabs for If White America. Lyrics for acoustic guitar and electric guitar. 1 Tablatures and chords are parodies/interpretations of the original songs. You may use it for private study, scholarship, research or language learning purposes only