» » »

Manic Street Preachers, Everything Must Go Tabs (ver.1)

Artists:  A B C D E F G H I J K L M N O P Q R S T U V W X Y Z # 

Everything Must Go Tabs (ver.1)

Manic Street Preachers Tabs
 Rating:
4/5 (4 votes)
Everything Must Go lessons Tabs too difficult? Try these video lessons and learn fast
1
                'EBERYTHING MUST GO - MANIC STREET PREACHERS' Guitar Tab By Rawns182
*****************************************************************
Ever get fed up with people doing a tab for song you love and then at the end, it says: -

'Thats about it. You have to figur out what order to put it in. Oh. and half of it's wrong'

Well I do. Here is a FULL CORRECT tab that is easy to follow. Its all in correct order so just
start from the top and work your way down. Easy. 

To make it as easy as poss, I have got rid of 'X 2', 'Riff 3' etc but included the lyrics so if 
you are a beginner, you won't get confused, and if you are a master, you should be able to play 
it with ease. Either way, you should have max fun playing it.

Keep it real...

**************************************************************

E |----------|----------|----------|--5---5-5-|--5---5-5-|--4---4-4-|--4---4-4-|
B |----------|----------|----------|--5---5-5-|--5---5-5-|--4---4-4-|--4---4-4-|
G |----------|----------|----------|--5---5-5-|--5---5-5-|--4---4-4-|--4---4-4-|
D |------2s7-|----------|-7--------|----------|----------|----------|----------|
A |----------|----------|----------|----------|----------|----------|----------|
E |----------|----------|----------|----------|----------|----------|----------|

                      
E |------5------------5---5----|-------5---------5---5------|
B |------5------------5---5----|-------5---------5---5------|
G |------5------------5---5----|-------5---------5---5------|
D |----------------------------|----------------------------|
A |----------------------------|----------------------------|
E |----------------------------|----------------------------|
                      
E |------4------------4---4----|-------4---------4---4------|
B |------4------------4---4----|-------4---------4---4------|
G |------4------------4---4----|-------4---------4---4------|
D |----------------------------|----------------------------|
A |----------------------------|----------------------------|
E |----------------------------|----------------------------|
                      
E |------5------------5---5----|-------5---------5---5------|
B |------5------------5---5----|-------5---------5---5------|
G |------5------------5---5----|-------5---------5---5------|
D |----------------------------|----------------------------|
A |----------------------------|----------------------------|
E |----------------------------|----------------------------|
                      
E |------4------------4---4----|----4-----4--4--4-----------|
B |------4------------4---4----|----4-----4--4--4-----------|
G |------4------------4---4----|----4-----4--4--4-----------|
D |----------------------------|----------------------------|
A |----------------------------|----------------------------|
E |----------------------------|----------------------------|
                      
E |----------------------------|----------------------------|
B |-5-5---5--4-----------------|----------------------------|
G |-4-4---4--4-e.t.c-----------|-repeat---------------------|
D |-6-6---6--4-----------------|----------------------------|
A |----------------------------|----------------------------|
E |----------------------------|----------------------------|

E |---0-----0--------0---------|--0-------------------------|
B |---1-----0--------1---------|--1-------------------------|
G |---2-----2--------2---------|--2-------------------------|
D |---2-----2--------2---------|--2-------------------------|
A |---0-----0--------0---------|--0-------------------------|
E |----------------------------|----------------------------|

E |-0--------------0--0--0---------|----------------------------|
B |-0--------------0--0--0---------|----------------------------|
G |-1--------------1--1--1---------|----------------------------|
D |-2--------------2--2--2-e.t.c---|--repeat--------------------|
A |-2--------------2--2--2---------|----------------------------|
E |-0--------------0--0--0---------|----------------------------|

E |---0----------0-----0-------|-----0---------------------|
B |---1----------0-----1-------|-------0-------------0-----|
G |---2----------2-----2-------|---------5------5----------|
D |---2----------2-----2-------|------------7--------------|
A |---0----------0-----0-------|-5s7-----------------------|
E |----------------------------|---------------------------|

E |---------0-----2-------3----|-----2-----0-------2--------|
B |---3------------------------|----------------------------|
G |---2-----0-----2-------3----|-----2-----0-------2--------|
D |----------------------------|----------------------------|
A |----------------------------|----------------------------|
E |----------------------------|--------------------------0-|

E |----0-------------0----0----|-0--------------------------|
B |----0-------------0----0----|-0--------------------------|
G |----1-------------1----1----|-1--------------------------|
D |----2-------------2----2----|-2------2---------2---------|
A |----2-------------2----2----|-2---2------2----------2----|
E |----0-------------0----0----|-0--------------------------|

E |----------------------------|----------------------------|
B |----------------------------|----------------------------|
G |----------------------------|----------------------------|
D |--2---2-------2---2---------|-----2---2-----2--2---------|
A |---------2-------------2----|--2---------2---------------|
E |----------------------------|------------------------0---|

E |----------------------------|---------0-----------------|
B |----------------------------|------------0------------0-|
G |----------------------------|---------------5-----5-----|
D |----------------------------|------------------7--------|
A |--0-----0----------0---0----|---------------------------|
E |-------------0--------------|--5s7----------------------|

E |---------0------2-----3-----|----2------0---------2------|
B |---2------------------------|----------------------------|
G |---3-----0------2-----3-----|----2------0---------2------|
D |----------------------------|----------------------------|
A |----------------------------|----------------------------|
E |----------------------------|-------------------------0--|

E |----------------------------|----------------------------|
B |----------------------------|----------------------------|
G |----------------------------|----------------------------|
D |----------------------------|----------------------------|
A |--5s7------5-----5----------|----------------------------|
E |----------------------5s7---|---7----5------3---5---3--0-|   
                       
E |------5------------5---5----|-------5---------5---5------|
B |------5------------5---5----|-------5---------5---5------|
G |------5------------5---5----|-------5---------5---5------|
D |----------------------------|----------------------------|
A |----------------------------|----------------------------|
E |----------------------------|----------------------------|
                     
E |------4------------4---4----|-------4---------4---4------|
B |------4------------4---4----|-------4---------4---4------|
G |------4------------4---4----|-------4---------4---4------|
D |----------------------------|----------------------------|
A |----------------------------|----------------------------|
E |----------------------------|----------------------------|
                    
E |------5------------5---5----|-------5---------5---5------|
B |------5------------5---5----|-------5---------5---5------|
G |------5------------5---5----|-------5---------5---5------|
D |----------------------------|----------------------------|
A |----------------------------|----------------------------|
E |----------------------------|----------------------------|
                       
E |------4------------4---4----|-------4---------4---4------|
B |------4------------4---4----|-------4---------4---4------|
G |------4------------4---4----|-------4---------4---4------|
D |----------------------------|----------------------------|
A |----------------------------|----------------------------|
E |----------------------------|----------------------------|
                        
E |------5------------5---5----|-------5---------5---5------|
B |------5------------5---5----|-------5---------5---5------|
G |------5------------5---5----|-------5---------5---5------|
D |----------------------------|----------------------------|
A |----------------------------|----------------------------|
E |----------------------------|----------------------------|
                        
E |------4------------4---4----|-------4--4-4-4--4-4-4---4--|
B |------4------------4---4----|-------4--4-4-4--4-4-4---4--|
G |------4------------4---4----|-------4--4-4-4--4-4-4---4--|
D |----------------------------|----------------------------|
A |----------------------------|----------------------------|
E |----------------------------|----------------------------|
                      
E |----------------------------|----------------------------|
B |-5-5---5--4-----------------|----------------------------|
G |-4-4---4--4-e.t.c-----------|-repeat---------------------|
D |-6-6---6--4-----------------|----------------------------|
A |----------------------------|----------------------------|
E |----------------------------|----------------------------|

E |---0-----0--------0---------|--0-0-----------------------|
B |---1-----0--------1---------|--1-1-----------------------|
G |---2-----2--------2---------|--2-2-e.t.c-----------------|
D |---2-----2--------2---------|--2-2-----------------------|
A |---0-----0--------0---------|--0-0-----------------------|
E |----------------------------|----------------------------|

E |-0--------------0--0--0---------|----------------------------|
B |-0--------------0--0--0---------|----------------------------|
G |-1--------------1--1--1---------|----------------------------|
D |-2--------------2--2--2-e.t.c---|--repeat--------------------|
A |-2--------------2--2--2---------|----------------------------|
E |-0--------------0--0--0---------|----------------------------|

E |---0----------0-----0-------|-----0---------------------|
B |---1----------0-----1-------|-------0-------------0-----|
G |---2----------2-----2-------|---------5------5----------|
D |---2----------2-----2-------|------------7--------------|
A |---0----------0-----0-------|-5s7-----------------------|
E |----------------------------|---------------------------|

E |---------0-----2-------3----|-----2-----0-------2--------|
B |---3------------------------|----------------------------|
G |---2-----0-----2-------3----|-----2-----0-------2--------|
D |----------------------------|----------------------------|
A |----------------------------|----------------------------|
E |----------------------------|--------------------------0-|

E |----0-------------0----0----|-0--------------------------|
B |----0-------------0----0----|-0--------------------------|
G |----1-------------1----1----|-1--------------------------|
D |----2-------------2----2----|-2------------------------0-|
A |----2-------------2----2----|-2------------------------0-|
E |----0-------------0----0----|-0---0-0-0---0------0---0---|

E |--0--0------------------------|----------------------------|
B |--0--0------------------------|----------------------------|
G |--1--1-e.t.c------------------|----------------------------|
D |--2--2------------------------|--------repeat--------------|
A |--2--2------------------------|----------------------------|
E |--0--0------------------------|----------------------------|

E |---0--0---------------------|---------------------------|
B |---1--1---------------------|---------------------------|
G |---2--2---e.t.c-------------|-repeat--------------------|
D |---2--2---------------------|---------------------------|
A |---0--0---------------------|---------------------------|
E |----------------------------|---------------------------|

E |---------0------2-----3-----|----2------0---------2------|
B |---2------------------------|----------------------------|
G |---3-----0------2-----3-----|----2------0---------2------|
D |----------------------------|----------------------------|
A |----------------------------|------------------------2s7-|
E |----------------------------|----------------------------|

E |----------|----------|----------|----------|----------|----------|
B |----------|----------|----------|----------|----------|----------|
G |----------|----------|----------|---4s9s11-|-9--------|-9--------|
D |----------|----------|----------|----------|----------|----------|
A |-7--------|-7--------|-7--------|-7--------|----------|----------|
E |----------|----------|----------|----------|----------|----------|
                   
E |----------------------------|----------------------------|
B |----------------------------|----------------------------|
G |-9-------9s2-----------2----|-2s1------------------------|
D |----------------------------|----------------------------|
A |----------------------------|----------------------------|
E |----------------------------|----------------------------|
            
Submit corrections

comments powered by Disqus
↑ Back to top | Manic Street Preachers Tabs for Everything Must Go. Lyrics for acoustic guitar and electric guitar. 1 Tablatures and chords are parodies/interpretations of the original songs. You may use it for private study, scholarship, research or language learning purposes only