>
 >
*** Dog

*** Dog Guitar Tabs

Manic Street Preachers - *** Dog chords, tabs, tablatures, lyrics

Guitar lessons | Add/correct | Request | Top 50 tabs Artists:  A B C D E F G H I J K L M N O P Q R S T U V W X Y Z 0-9

*** Dog Guitar Tabs – Manic Street Preachers

CD, Sheet music, Poster

Do you like *** Dog? Share with your friends now
Tabs
Member Name: the edge
Real Name: Alan Kells

*** Dog Guitar TAB

  This track uses two guitars throughout, with plenty of distortion.
Both guitars appear to be playing the same riff except in the solo
section when guitar #1 plays the solo and guitar #2 continues the riff.

Key:    ^   =   Accent
        /   =   Slide up
        \   =   Slide down
        po  =   Pull Off

Guitar Tab

Riff A

G-|-----14------------|------------------|
D-|-14--14--14--------|-14---2-/7-7-7-7--|
A-|-14--12--14--------|-14---2-/7-7-7-7--|
E-|-12------12-po-0---|-12---0-/5-5-5-5--|

Riff B

G-|-14--14--14--------|-14---2-/7-7-7-7--|
D-|-14--12--14--------|-14---2-/7-7-7-7--|
A-|-12--12--12-po-0---|-12---0-/5-5-5-5--|
E-|-------------------|------------------|

Chords
      E      Esus4     E#4    E5type2
e     0        0        0        0
B     0        0        0        0
G     1        2        3        4
D     2        2        2        2
A     2        2        2        2
E     0        0        0        0

Arrangement
                    x4
Intro:      |:Riff A:|

Verse:       Riff A                    Riff A
             I can lick your face,     I can bite it too.

             Riff B                    Riff A
             My teeths got rabies,     I'm gonna give it to you.

Chorus:      E             Esus4
             Feed me,      Feed me,

             Esus4             E#4       E5type2       N.C.
             Can't you hear me howl.     Feed me,     Cause I'm a ***ed
                                                      dog now.

                     x4
Bridge:      |:Riff A:|

Verse 2:     Repeat Verse 1

Chorus:      Repeat Chorus

                     x2
Solo:        |:Riff A:| Riff B | Riff A |
             | E      | Esus4  | E#4    | E5 type2 | E5     |
             | E      | Esus4  | E#4    | E5 type2 | E5     |

             ( N.B. Sorry we havn't worked out the guitar solo yet )

Chorus:      Repeat Chorus

Outro:       Played half speed

                (strummed)
             | E5     | E5     |



Bass Tab

Riff A

G-|-----------------|-----------------|
D-|-----------------|-----------------|
A-|-----12----------|-----------------|
E-|-12------12-12---|-12--0-/5-5-5-5--|

Riff B

G-|-----------------|-----------------|
D-|-----12----------|-----------------|
A-|-12------12-12---|-12--0-/5-5-5-5--|
E-|-----------------|-----------------|

Chorus

    E                Esus4            E#4              E5type2
D-|----------------|----------------|----------------|----------------|
A-|-^--------------|-^--------------|-^--------------|-^--------------|
E-|-0--0-0-0-0-0-0-|-4--4-4-4-4-4-4-|-5--5-5-5-5-5-5-|-6--6-6-6-6-6-6-|

   E5                     N.C.
D-|----------------------|-------|
A-|-^--------------------|-^-----|
E-|-7---7--7--7--7--7--7-|-7\----|

Outro

    E5                N.C.
A-|-----------------|-^-----|
E-|-0-0-0-0-0-0-0-0-|-0-----|





Comments


Popular Manic Street Preachers tabs & chords
La Tristesse Durera Bass Tabs
Miss Europa Disco Dancer Bass Tabs
You Love Us 2 Bass Tabs
This Sullen Welsh Heart Feat Lucy Rose Chords
Let Robeson Sing Tabs
No Surface All Feeling 1 Tabs
Removables  Tabs
The Everlasting 1 Tabs
Your Love Alone Is Not Enough 1 Tabs
If You Tolerate This Your Children Will Be Next Ukulele


Song lyrics



↑ Back to top | Tablatures and chords are parodies/interpretations of the original songs. You may use it for private study, scholarship, research or language learning purposes only
© 2014 AZChords.com Contact us | Privacy policy | DMCA | Add/correct tabs | Request tabs | Top 50 tabs