» » »

Manic Street Preachers, Democracy Coma Tabs (ver.1)

Artists:  A B C D E F G H I J K L M N O P Q R S T U V W X Y Z # 

Democracy Coma Tabs (ver.1)

Manic Street Preachers Tabs
Rating:
0/5 (0 votes)
Hard to play? Try these video lessons and learn fast.
                PLEASE COMMENT!!

Intro:
e ----------------------------------|
b ----------------------------------|
g -11b13-11b13-11b13r11p9---------9-|
d ------------------------11-9h11---|
a ----------------------------------|
e ----------------------------------|

e -------------------------|
b -------------------------|
g -9b11-9b11-9b11r9p7------|
d --------------------9-12-|
a -------------------------|
e -------------------------|

e ----------------------|
b ----------------------|
g -4b6-4b6-4b64r4p2---2-|
d ------------------4---|
a ----------------------|
e ----------------------|

e ---------9---------9---------9---------9-----------------|
b -------9---------9---------9---------9-------------------|
g -11b13-----11b13-----11b13-----11b13-----11b13r11p9----9-|
d ----------------------------------------------------11---|
a ---------------------------------------------------------|
e ---------------------------------------------------------|

e ----------------------------------------------|
b ----------------------------------------------|
g -11-11-11-11-11-7-7-7-7-7-----------9-9-9-9-9-|
d -11-11-11-11-11-7-7-7-7-7-9-9-9-9-9-9-9-9-9-9-|
a -9--9--9--9--9--5-5-5-5-5-9-9-9-9-9-7-7-7-7-7-|
e --------------------------7-7-7-7-7-----------|

e ----------------------------------------------|
b ----------------------------------------------|
g -11-11-11-11-11-7-7-7-7-7-----------9-9-9-9-9-|
d -11-11-11-11-11-7-7-7-7-7-9-9-9-9-9-9-9-9-9-9-|
a -9--9--9--9--9--5-5-5-5-5-9-9-9-9-9-7-7-7-7-7-|
e --------------------------7-7-7-7-7-----------|

Verse 1:
e -----------------------------------------------|
b -----------------------------------------------|
g -----------------------------------------------|
d -----------------------------------------------|
a -9-9-9-9-9-5-5-5-5-5-5-5-----------7-7-7-7-7-7-|
e -------------------------7-7-7-7-7-------------|
Sovereign figures scr*pe our lives until we are bored

e -----------------------------------------------|
b -----------------------------------------------|
g -----------------------------------------------|
d -----------------------------------------------|
a -9-9-9-9-9-5-5-5-5-5-5-5-----------7-7-7-7-7-7-|
e -------------------------7-7-7-7-7-------------|
Screaming comatose with blackboard chalk

e -----------------------------------------------|
b -----------------------------------------------|
g -----------------------------------------------|
d -----------------------------------------------|
a -9-9-9-9-9-5-5-5-5-5-5-5-----------7-7-7-7-7-7-|
e -------------------------7-7-7-7-7-------------|
Syphoned minds suck our wallet full of love

e -----------------------------------------------|
b -----------------------------------------------|
g -----------------------------------------------|
d -----------------------------------------------|
a -9-9-9-9-9-5-5-5-5-5-5-5-----------7-7-7-7-7-7-|
e -------------------------7-7-7-7-7-------------|
Spitting out a language I don't wanna talk

Chorus:
e ---------------|
b ---------------|
g -9-9-----7-7---|
d -9-9-7-7-7-7-7-|
a -7-7-7-7-5-5-7-|
e -----5-5-----5-|
Mother of the free

e ---------------|
b ---------------|
g -9-9-----7-7---|
d -9-9-7-7-7-7-7-|
a -7-7-7-7-5-5-7-|
e -----5-5-----5-|
She said that we'd breathe

e -----------------|
b -----------------|
g -9-9-----7-7-----|
d -9-9-7-7-7-7-7-7-|
a -7-7-7-7-5-5-7-7-|
e -----5-5-----5-5-|
Mother of the free but we just

e -----------------------|
b -----------------------|
g ---9---8---7---6-7-6-7-|
d ---9---8---7---6-7-6-7-|
a ---7---6---5---4-5-4-5-|
e -0---0---0---0---------|
Scream

e -----------------------|
b -----------------------|
g ---9---8---7---6-7-6-7-|
d ---9---8---7---6-7-6-7-|
a ---7---6---5---4-5-4-5-|
e -0---0---0---0---------|

Break:
e ----------------------------------------------|
b ----------------------------------------------|
g -11-11-11-11-11-7-7-7-7-7-----------9-9-9-9-9-|
d -11-11-11-11-11-7-7-7-7-7-9-9-9-9-9-9-9-9-9-9-|
a -9--9--9--9--9--5-5-5-5-5-9-9-9-9-9-7-7-7-7-7-|
e --------------------------7-7-7-7-7-----------|

Verse 2:
e -----------------------------------------------|
b -----------------------------------------------|
g -----------------------------------------------|
d -----------------------------------------------|
a -9-9-9-9-9-5-5-5-5-5-5-5-----------7-7-7-7-7-7-|
e -------------------------7-7-7-7-7-------------|
To me the coronation's another auto da fe

e -----------------------------------------------|
b -----------------------------------------------|
g -----------------------------------------------|
d -----------------------------------------------|
a -9-9-9-9-9-5-5-5-5-5-5-5-----------7-7-7-7-7-7-|
e -------------------------7-7-7-7-7-------------|
Taught in schools to see her as a glorious being

e -----------------------------------------------|
b -----------------------------------------------|
g -----------------------------------------------|
d -----------------------------------------------|
a -9-9-9-9-9-5-5-5-5-5-5-5-----------7-7-7-7-7-7-|
e -------------------------7-7-7-7-7-------------|
I don't see happy homes blood-fueled Belfast war

e -----------------------------------------------|
b -----------------------------------------------|
g -----------------------------------------------|
d -----------------------------------------------|
a -9-9-9-9-9-5-5-5-5-5-5-5-----------7-7-7-7-7-7-|
e -------------------------7-7-7-7-7-------------|
In Walkman sounds hear Sony control

Chorus:
e ---------------|
b ---------------|
g -9-9-----7-7---|
d -9-9-7-7-7-7-7-|
a -7-7-7-7-5-5-7-|
e -----5-5-----5-|
Mother of the free

e ---------------|
b ---------------|
g -9-9-----7-7---|
d -9-9-7-7-7-7-7-|
a -7-7-7-7-5-5-7-|
e -----5-5-----5-|
She said that we'd breathe

e -----------------|
b -----------------|
g -9-9-----7-7-----|
d -9-9-7-7-7-7-7-7-|
a -7-7-7-7-5-5-7-7-|
e -----5-5-----5-5-|
Mother of the free but we just

e -------------------------------------|
b -------------------------------------|
g -9-7-9-7-9-7-9-7-9-7-9-7-9-7-9-7-9-7-|
d -9-7-9-7-9-7-9-7-9-7-9-7-9-7-9-7-9-7-|
a -7-5-7-5-7-5-7-5-7-5-7-5-7-5-7-5-7-5-|
e -0-0-0-0-0-0-0-0-0-0-0-0-0-0-0-0-0-0-|
Scream

e ---------------|
b ---------------|
g -9-9-----7-7---|
d -9-9-7-7-7-7-7-|
a -7-7-7-7-5-5-7-|
e -----5-5-----5-|
Mother of the free

e ---------------|
b ---------------|
g -9-9-----7-7---|
d -9-9-7-7-7-7-7-|
a -7-7-7-7-5-5-7-|
e -----5-5-----5-|
She said that we'd breathe

e -----------------|
b -----------------|
g -9-9-----7-7-----|
d -9-9-7-7-7-7-7-7-|
a -7-7-7-7-5-5-7-7-|
e -----5-5-----5-5-|
Mother of the free but we just

e -------------------------------------|
b -------------------------------------|
g -9-7-9-7-9-7-9-7-9-7-9-7-9-7-9-7-9-7-|
d -9-7-9-7-9-7-9-7-9-7-9-7-9-7-9-7-9-7-|
a -7-5-7-5-7-5-7-5-7-5-7-5-7-5-7-5-7-5-|
e -0-0-0-0-0-0-0-0-0-0-0-0-0-0-0-0-0-0-|
Scream

Bridge:
e ----------------------------------------------------|
b ----------------------------------------------------|
g ----------------------------------------------------|
d -11-11-11-11-11-9-9-9-9-9-7-7-7-7-7-7-7-7-7-7-7-7-7-|
a -11-11-11-11-11-9-9-9-9-9-7-7-7-7-7-7-7-7-7-7-7-7-7-|
e -9--9--9--9--9--7-7-7-7-7-5-5-5-5-5-5-5-5-5-5-5-5-5-|
Parliament mother of United Nations

e ----------------------------------------------------|
b ----------------------------------------------------|
g ----------------------------------------------------|
d -11-11-11-11-11-9-9-9-9-9-7-7-7-7-7-7-7-7-7-7-7-7-7-|
a -11-11-11-11-11-9-9-9-9-9-7-7-7-7-7-7-7-7-7-7-7-7-7-|
e -9--9--9--9--9--7-7-7-7-7-5-5-5-5-5-5-5-5-5-5-5-5-5-|
Mother of history's dead son dead sons

e ----------------------------------------------------|
b ----------------------------------------------------|
g ----------------------------------------------------|
d -11-11-11-11-11-9-9-9-9-9-7-7-7-7-7-7-7-7-7-7-7-7-7-|
a -11-11-11-11-11-9-9-9-9-9-7-7-7-7-7-7-7-7-7-7-7-7-7-|
e -9--9--9--9--9--7-7-7-7-7-5-5-5-5-5-5-5-5-5-5-5-5-5-|
DNA of restriction and law

e ----------------------------------------------------|
b ----------------------------------------------------|
g ----------------------------------------------------|
d -11-11-11-11-11-9-9-9-9-9-7-7-7-7-7-7-7-7-7-7-7-7-7-|
a -11-11-11-11-11-9-9-9-9-9-7-7-7-7-7-7-7-7-7-7-7-7-7-|
e -9--9--9--9--9--7-7-7-7-7-5-5-5-5-5-5-5-5-5-5-5-5-5-|
Death famine spectacle and war

Solo:
e ---------------------------------------------------------|
b -------------12-------12-------12-------12---------------|
g -11-11-11h13----11h13----11h13----11h13----11h13p11-9-11-|
d ---------------------------------------------------------|
a ---------------------------------------------------------|
e ---------------------------------------------------------|

e -------12-------12-------12-14b15r14-12-------|
b -12h14----12h14----12h14----------------14-12-|
g ----------------------------------------------|
d ----------------------------------------------|
a ----------------------------------------------|
e ----------------------------------------------|

e ---------------------------------------------------------|
b -------------12-------12-------12-------12---------------|
g -11-11-11h13----11h13----11h13----11h13----11h13p11-9-11-|
d ---------------------------------------------------------|
a ---------------------------------------------------------|
e ---------------------------------------------------------|

e -------12-------12-------12------------|
b -12h14----12h14----12h14----12h14b15~~-|
g ---------------------------------------|
d ---------------------------------------|
a ---------------------------------------|
e ---------------------------------------|

e -----------------------------------------------------------------|
b -----------------------------------12-10-12-10-12-12b13r12-10----|
g --------------------------------------------------------------13-|
d -----------------------------------------------------------------|
a -9-9-9-9-9-9-9-9-------------------------------------------------|
e -----------------10-10-10-10-10-10-------------------------------|

e -----------------------------------------------|
b -----------------------------------------------|
g -----------------------------------------------|
d -----------------------------------------------|
a -9-9-9-9-9-9-9-9-------------------------------|
e -----------------10-10-10-10-10-10-7-7-7-7-7-7-|

e ---------------------------------------------------------------------|
b ---------------------------------------------------------------------|
g -9-9-9-9-9-9-9-9-9-9-9-9-9-9-9-9-9-9-9-9-9-9-9-9-9-9-9-9-9-9-9-9-9-9-|
d -9-9-9-9-9-9-9-9-9-9-9-9-9-9-9-9-9-9-9-9-9-9-9-9-9-9-9-9-9-9-9-9-9-9-|
a -7-7-7-7-7-7-7-7-7-7-7-7-7-7-7-7-7-7-7-7-7-7-7-7-7-7-7-7-7-7-7-7-7-7-|
e ---------------------------------------------------------------------|

Chorus:
e ---------------|
b ---------------|
g -9-9-----7-7---|
d -9-9-7-7-7-7-7-|
a -7-7-7-7-5-5-7-|
e -----5-5-----5-|
Mother of the free

e ---------------|
b ---------------|
g -9-9-----7-7---|
d -9-9-7-7-7-7-7-|
a -7-7-7-7-5-5-7-|
e -----5-5-----5-|
She said that we'd breathe

e -----------------|
b -----------------|
g -9-9-----7-7-----|
d -9-9-7-7-7-7-7-7-|
a -7-7-7-7-5-5-7-7-|
e -----5-5-----5-5-|
Mother of the free but we just

e -----------------------|
b -----------------------|
g ---9---8---7---6-7-6-7-|
d ---9---8---7---6-7-6-7-|
a ---7---6---5---4-5-4-5-|
e -0---0---0---0---------|
Scream

e ---------------|
b ---------------|
g -9-9-----7-7---|
d -9-9-7-7-7-7-7-|
a -7-7-7-7-5-5-7-|
e -----5-5-----5-|
Mother of the free

e ---------------|
b ---------------|
g -9-9-----7-7---|
d -9-9-7-7-7-7-7-|
a -7-7-7-7-5-5-7-|
e -----5-5-----5-|
She said that we'd breathe

e -----------------|
b -----------------|
g -9-9-----7-7-----|
d -9-9-7-7-7-7-7-7-|
a -7-7-7-7-5-5-7-7-|
e -----5-5-----5-5-|
Mother of the free but we just

e ---------------------|
b -12-11-10-8-8h10p8---|
g -------------------9-|
d ---------------------|
a ---------------------|
e ---------------------|
Scream

e ---------------------|
b -12-11-10-8-8h10p8---|
g -------------------9-|
d ---------------------|
a ---------------------|
e ---------------------|

e ---------------------|
b -12-11-10-8-8h10p8---|
g -------------------9-|
d ---------------------|
a ---------------------|
e ---------------------|

e ---------------------|
b -12-11-10-8-8h10p8---|
g -------------------9-|
d ---------------------|
a ---------------------|
e ---------------------|

e ----
b ----
g -9s-
d -9s-
a -7s-
e ----
            

comments powered by Disqus
↑ Back to top | Manic Street Preachers Tabs for Democracy Coma. Lyrics for acoustic guitar and electric guitar. Tablatures and chords are parodies/interpretations of the original songs. You may use it for private study, scholarship, research or language learning purposes only