>
 >
Black Dog On My Shoulder

Black Dog On My Shoulder Guitar Tabs

Manic Street Preachers - Black Dog On My Shoulder chords, tabs, tablatures, lyrics

Guitar lessons | Add/correct | Request | Top 50 tabs Artists:  A B C D E F G H I J K L M N O P Q R S T U V W X Y Z 0-9

Black Dog On My Shoulder Guitar Tabs – Manic Street Preachers

CD, Sheet music, Poster

Do you like Black Dog On My Shoulder? Share with your friends now
Tabs
INTRO
e||----15---15-15----14---12------------||
B||---------------------------15--------||
G||-12---12-------12---12---------12h14-||
D||-------------------------------------||
A||-------------------------------------||
E||-------------------------------------||

e||-----------------|-----------------|-------------------|
B||-----------------|-----------------|-------------------|
G||-------0---------|-------0---------|--------7----------|
D||-----7-----7---7-|-----9-----9---9-|------9-----9----9-|
A||-0h9---------9---|-0h7---------7---|-0h10---------10---|
E||-----------------|-----------------|-------------------|

Chords strummed once by electric guitar
(Acoustic chords bracketed)
Time...00:22 etc.
    A7     Em      G      A7       Em       A  F#m       B
e||-9-(0)--3-(0)--10-(3)--5-(0)--|-0--------0---2--------2--||
B||-8-(2)--5-(0)--12-(3)--5-(2)--|-0--0--0--2---2--2--2--4--||
G||-9-(0)--4-(0)--12-(0)--6-(0)--|-0--0--0--2---2--2--2--4--||
D||-7-(2)--5-(2)--12-(0)--5-(2)--|-2--1--0--2---4--3--2--4--||
A||---(0)----(2)-----(2)----(0)--|-2--2--2--0---4--4--4--2--||
E||----------(0)-----(3)---------|-0--0--0------2--2--2-----||

Time...00:44...00:59...01:43...01:54...02:07...02:52...03:03...03:17
e||-------------------------------------------|2-0----|-------|2-0-----||
B||------------------------------------------2|----2--|3-2----|----3-2-||
G||-------0------------0------------0--------2|------2|----2--|--------||
D||-----2----2--2----1----1--1----0----0--0--2|-------|------2|--------||
A||-0h2--------2-0h2--------2-0h2--------2-0--|-------|-------|--------||
E||-------------------------------------------|-------|-------|--------||
                                               1       2       3
Time...01:48...02:57
e||---------------------------------------------------||
B||---------------------------------------------------||
G||-------2------------2------------2-----------4-----||
D||-----4----4--4----3----3--3----2----2--2---4----4--||
A||-2h4--------4-2h4--------4-2h4--------4-2----------||
E||---------------------------------------------------||

CHORUS (Strum once)
Time...00:50
  Dmaj7  G
e||-2----3-||
B||-2----3-||
G||-2----0-||
D||-0----0-||
A||------2-||
E||------3-||

MIDDLE
Time...02:36
e||---------------------||
B||-8p7---7-------------||
G||-----9---9p7---7--6--||
D||-------------9-------||
A||---------------------||
E||---------------------||

OUTRO
Dmaj7.x57675.xx0222
G.....355433.320033
Time...03:47
e||------------------------------------------------|--------7-------------||
B||---------7-----------------7h8p7-7--------------|----------7-----------||
G||------------6---5b6--4----------9-9p7-7-9p7-9p7-|-9b11-------9-9b11-7--||
D||-\---7-------7-----------------------9----------|----------------------||
A||------------------------------------------------|----------------------||
E||------------------------------------------------|----------------------||

e||--------------------|----------------------------------------|------7---|
B||--------------------|------7----------------7h8p7-7----------|-------7--|
G||--------------------|---------6---5b6--4---------9-9p7-7---7-|-9b11---9-|
D||--9p7-9--7-7h9-9-9\-|-/7-------7----------------------9-7h9--|----------|
A||--------------------|----------------------------------------|----------|
E||--------------------|----------------------------------------|----------|

e||-----------------------------------------|------------------------||
B||-----------12b14--12p10-12---10h12-12-12-|------7-----------------||
G||-9b11-9-7--------------------------------|--------6---5b6--4---/--||
D||-----------------------------------------|-/7------7--------------||
A||-----------------------------------------|------------------------||
E||-----------------------------------------|------------------------||

e||---------------------|----------------------------------------|----------|
B||---------7h8p7-7-----|----7--------------/7-7-7---7-----------|----7-----|
G||-----7h9------9-9p7-7|-------6----5b6--4--------9---9p7-7---7-|-------6--|
D||-7h9---------------9-|7--------7-----------------------9-7h9--|-7------7-|
A||---------------------|----------------------------------------|----------|
E||---------------------|----------------------------------------|----------|

e||-----------------------------------|-2----2---2-2--2--2-||
B||-----------------------------------|-2----2---2-2--2--2-||
G||-5b6--4----4-4--0h2p0---0----------|-2----2---2-2--2--2-||
D||----------------------4---4p2p0----|--------------------||
A||---------------------------------0-|--------------------||
E||-----------------------------------|--------------------||

e||---------------------------|--2----2---2-2--2--2-------------------------|
B||-----12-12----12-12-12-----|--2----2---2-2--2--2-------------------------|
G||---0-----------------------|--2----2---2-2--2--2-------------------------|
D||-/12-------12----------12\-|--0----0---0-0--0--0--5---5--5--5-5--5--5--5-|
A||---------------------------|----------------------5---5--5--5-5--5--5--5-|
E||---------------------------|----------------------3---3--3--3-3--3--3--3-|

e||----------------------------------------------||
B||----7----------------------------7h8p7-7------||
G||------6-----6--5b6--4---------7h9-----9-9p7-7-||
D||-/7-------7------------7-7-7h9-------------9--||
A||----------------------------------------------||
E||----------------------------------------------||

e||-14----14---14-14--14--14-|------------------------||
B||-14----14---14-14--14--14-|------------------------||
G||-14----14---14-14--14--14-|------------------------||
D||--------------------------|-5---5--5--5-5--5--5--5-||
A||--------------------------|-5---5--5--5-5--5--5--5-||
E||--------------------------|-3---3--3--3-3--3--3--3-||etc.





Comments


Popular Manic Street Preachers tabs & chords
This Sullen Welsh Heart Feat Lucy Rose Chords
A Design For Life Drum Tabs
Another Invented Disease 1 Tabs
From Despare To Where? Tabs
Interiors Tabs
Of Walking Abortion 2 Tabs
P. C. P Tabs
The Everlasting Tabs
Velocity Girl Tabs
Firefight Ukulele


Song lyrics



↑ Back to top | Tablatures and chords are parodies/interpretations of the original songs. You may use it for private study, scholarship, research or language learning purposes only
© 2014 AZChords.com Contact us | Privacy policy | DMCA | Add/correct tabs | Request tabs | Top 50 tabs