>
 >
Autumnsong 2

Autumnsong 2 Guitar Tabs

Manic Street Preachers - Autumnsong 2 chords, tabs, tablatures, lyrics

Guitar lessons | Add/correct | Request | Top 50 tabs Artists:  A B C D E F G H I J K L M N O P Q R S T U V W X Y Z 0-9

Autumnsong 2 Guitar Tabs – Manic Street Preachers

CD, Sheet music, Poster

Do you like Autumnsong 2? Share with your friends now
Bass TabsTabsTabs v2Tabs v3
----------------------------------------------------------------------------
                   AUTUMN SONG - Manic Street Preachers
----------------------------------------------------------------------------

Tuning: Standard

Intro:
e|------------14--------14--12p10----------------14------14--12p10-------|
B|-------------------------------12p10---------------------------12p10---|
G|------14-----------14---------------------14--------14-----------------|
D|--12------------12-------------------12----------12--------------------|x2
A|-----------------------------------------------------------------------|
E|-----------------------------------------------------------------------|
simultaneous (second time only)
e|------5----------------------------------------------------5-------------|
B|------7----------------------------------------------------7-------------|
G|------7----------------------------------------------------7-------------|
D|---xx-7-------------------------------------------------xx-7-------------|
A|---xx-5-------------------------------------------------xx-5-------------|
E|---xx---------------------------------------------------xx---------------|

Verse:
e|---2-2--22-2-2-2----2------------3-3-----3-3-3--2-2-22-2-00--------------|
B|---3-3--33-3-3-3--2-2--22-3-3-2--0-0--00-0-0-0--3-3-33-3-22--------------|
G|---2-2--22-2-2-2--2-2--22-2-2-2--0-0--00-0-0-0--2-2-22-2-22--------------|
D|---0-0--00-0-0-0--4-4--44-4-4-4--0-0--00-0-0-0--0-0-00-0-22--------------|
A|------------------4-4--44-4-4-4--2-2--22-2-2-2-----------00--------------|
E|------------------2-2--22-2-2-2--3-3--33-3-3-3---------------------------|

e|---2-2-22-2-2-2---------------2-2--22-2-2-2--0-0-00-0-0-0----------------|
B|---3-3-33-3-3-3---------------3-3--33-3-3-3--2-2-22-3-3-2----------------|
G|---4-4-44-4-4-4---------------2-2--22-2-2-2--2-2-22-2-2-2----------------|
D|---4-4-44-4-4-4--2-2-22-2-2-2-0-0--00-0-0-0--2-2-22-2-2-2----------------|
A|---2-2-22-2-2-2--2-2-22-2-2-2----------------0-0-00-0-0-0----------------|
E|-----------------0-0-00-0-0-0--------------------------------------------|

e|---2-2--22-2-2-2----2------------3-3-----3-3-3--2-2-22-2-00--------------|
B|---3-3--33-3-3-3--2-2--22-3-3-2--0-0--00-0-0-0--3-3-33-3-22--------------|
G|---2-2--22-2-2-2--2-2--22-2-2-2--0-0--00-0-0-0--2-2-22-2-22--------------|
D|---0-0--00-0-0-0--4-4--44-4-4-4--0-0--00-0-0-0--0-0-00-0-22--------------|
A|------------------4-4--44-4-4-4--2-2--22-2-2-2-----------00--------------|
E|------------------2-2--22-2-2-2--3-3--33-3-3-3---------------------------|
                                            Done to your hair..
e|-2-2-22-2-2-2---------------2-2--22-2-2-2--------------------------------|
B|-3-3-33-3-3-3---------------3-3--33-3-3-3--------------------------------|
G|-4-4-44-4-4-4---------------2-2--22-2-2-2-2-2-2-2-2-2-2-2-2-2-2-2-2-2-2-2|
D|-4-4-44-4-4-4--2-2-22-2-2-2-0-0--00-0-0-0-2-2-2-2-2-2-2-2-2-2-2-2-2-2-2-2|
A|-2-2-22-2-2-2--2-2-22-2-2-2---------------0-0-0-0-0-0-0-0-0-0-0-0-0-0-0-0|
E|---------------0-0-00-0-0-0----------------------------------------------|

Chorus
e|-5--5--5--5--7--7--7--7--9---9---9---9---10--10--10-10-------------|
B|-7--7--7--7--8--8--8--8--10--10--10--10--12--12--12-12-------------|
G|-7--7--7--7--9--9--9--9--11--11--11--11--12--12--12-12-11-9--------|
D|-7--7--7--7--9--9--9--9--11--11--11--11--12--12--12-12-11-9--------|
A|-5--5--5--5--7--7--7--7--9---9---9---9---10--10--10-10-9--7--------|
E|-------------------------------------------------------------------|
...
e|-5--5--5--5--7--7--7--7--9---9---9---9---10--10--10--10------------|
B|-7--7--7--7--8--8--8--8--10--10--10--10--12--12--12--12------------|
G|-7--7--7--7--9--9--9--9--11--11--11--11--12--12--12--12------------|
D|-7--7--7--7--9--9--9--9--11--11--11--11--12--12--12--12------------|
A|-5--5--5--5--7--7--7--7--9---9---9---9---10--10--10--10------------|
E|-------------------------------------------------------------------|

Intro Reprise
e|------------14--------14--12p10----------------14------14--12p10-------|
B|-------------------------------12p10---------------------------12p10---|
G|------14-----------14---------------------14--------14-----------------|
D|--12------------12-------------------12----------12--------------------|
A|-----------------------------------------------------------------------|
E|-----------------------------------------------------------------------|
simultaneous (second time only)
e|---5-----------------------------------------5-----------|
B|---7-----------------------------------------7-----------|
G|---7-----------------------------------------7-----------|
D|---7--------------------------------------xx-7-----------|
A|---5--------------------------------------xx-5-----------|
E|------------------------------------------xx-------------|

Verse 2:
e|---2-2--22-2-2-2----2------------3-3-----3-3-3--2-2-22-2-00--------------|
B|---3-3--33-3-3-3--2-2--22-3-3-2--0-0--00-0-0-0--3-3-33-3-22--------------|
G|---2-2--22-2-2-2--2-2--22-2-2-2--0-0--00-0-0-0--2-2-22-2-22--------------|
D|---0-0--00-0-0-0--4-4--44-4-4-4--0-0--00-0-0-0--0-0-00-0-22--------------|
A|------------------4-4--44-4-4-4--2-2--22-2-2-2-----------00--------------|
E|------------------2-2--22-2-2-2--3-3--33-3-3-3---------------------------|

e|---2-2-22-2-2-2---------------2-2--22-2-2-2--0-0-00-0-0-0----------------|
B|---3-3-33-3-3-3---------------3-3--33-3-3-3--2-2-22-3-3-2----------------|
G|---4-4-44-4-4-4---------------2-2--22-2-2-2--2-2-22-2-2-2----------------|
D|---4-4-44-4-4-4--2-2-22-2-2-2-0-0--00-0-0-0--2-2-22-2-2-2----------------|
A|---2-2-22-2-2-2--2-2-22-2-2-2----------------0-0-00-0-0-0----------------|
E|-----------------0-0-00-0-0-0--------------------------------------------|

e|---2-2--22-2-2-2----2------------3-3-----3-3-3--2-2-22-2-00--------------|
B|---3-3--33-3-3-3--2-2--22-3-3-2--0-0--00-0-0-0--3-3-33-3-22--------------|
G|---2-2--22-2-2-2--2-2--22-2-2-2--0-0--00-0-0-0--2-2-22-2-22--------------|
D|---0-0--00-0-0-0--4-4--44-4-4-4--0-0--00-0-0-0--0-0-00-0-22--------------|
A|------------------4-4--44-4-4-4--2-2--22-2-2-2-----------00--------------|
E|------------------2-2--22-2-2-2--3-3--33-3-3-3---------------------------|
                                            Born to create..
e|-2-2-22-2-2-2---------------2-2--22-2-2-2--------------------------------|
B|-3-3-33-3-3-3---------------3-3--33-3-3-3--------------------------------|
G|-4-4-44-4-4-4---------------2-2--22-2-2-2-2-2-2-2-2-2-2-2-2-2-2-2-2-2-2-2|
D|-4-4-44-4-4-4--2-2-22-2-2-2-0-0--00-0-0-0-2-2-2-2-2-2-2-2-2-2-2-2-2-2-2-2|
A|-2-2-22-2-2-2--2-2-22-2-2-2---------------0-0-0-0-0-0-0-0-0-0-0-0-0-0-0-0|
E|---------------0-0-00-0-0-0----------------------------------------------|

2nd Chorus
e|-5--5--5--5--7--7--7--7--9---9---9---9---10--10--10-10-------------|
B|-7--7--7--7--8--8--8--8--10--10--10--10--12--12--12-12-------------|
G|-7--7--7--7--9--9--9--9--11--11--11--11--12--12--12-12-11-9--------|
D|-7--7--7--7--9--9--9--9--11--11--11--11--12--12--12-12-11-9--------|
A|-5--5--5--5--7--7--7--7--9---9---9---9---10--10--10-10-9--7--------|
E|-------------------------------------------------------------------|
...
e|-5--5--5--5--7--7--7--7--9---9---9---9---10--10--10--10------------|
B|-7--7--7--7--8--8--8--8--10--10--10--10--12--12--12--12------------|
G|-7--7--7--7--9--9--9--9--11--11--11--11--12--12--12--12------------|
D|-7--7--7--7--9--9--9--9--11--11--11--11--12--12--12--12------------|
A|-5--5--5--5--7--7--7--7--9---9---9---9---10--10--10--10------------|
E|-------------------------------------------------------------------|

Chorus Extra (Bridge) so wear your hair in bunches..
e|-----------------------------------------------------------------|
B|-----------------------------------------------------------------|
G|-xx--------------------------------------------------------------|
D|-xx-7---7---7---7----9---9---9---9--7--7--7--7--9---9---9---9----|
A|-xx-7---7---7---7----9---9---9---9--7--7--7--7--9---9---9---9----|
E|-xx-5---5---5---5----7---7---7---7--5--5--5--5--7---7---7---7----|
2nd
e|-----------------------------------------------------------------|
B|-------------------------10-------------------------10-----------|
G|---------------------9h11---9-------------------9h11--9-9--------|
D|------------------------------12-11----------------------11/12---|
A|-----------------------------------------------------------------|
E|-----------------------------------------------------------------|

e|-------------------------------------------------------------------------|
B|-------------------------------------------------------------------------|
G|-------------------------------------------------------------------------|
D|---5------5------5------5----4---4---4---4---2---2---2---2---7---7---7--7|
A|---5------5------5------5----4---4---4---4---2---2---2---2---7---7---7--7|
E|---3------3------3------3----2---2---2---2---0---0---0---0---5---5---7--5|
2nd
e|-------------------------------------------------------------------------|
B|-------------------------------------------------------------------------|
G|11bu12-11bu12-11bu12-11bu12-11~~~~~~~~11-11-9~------11-9----------------|
D|---------------------------------------------------------10--12~---------|
A|-------------------------------------------------------------------------|
E|-------------------------------------------------------------------------|

Solo:
e|-------------------------------------------------------------------------|
B|-------------------------------------------------------------------------|
G|-14-14-14--14-11-----/14--11-----------16-16-16--16-16/19-16-14--14~-----|
D|----------------12-11----------------------------------------------------|
A|-------------------------------2-4-2~------------------------------------|
E|-----------------------------3-------------------------------------------|
tricky bit:
e|-------------------------------------------------------------------------|
B|-----10--10h12p10--10----------------------------------------------------|
G|--/11--11--------11--9------7/9-----------------------------7-11--11-12--|
D|----------------------9-7h9----9\----4-4--4-7-7---------7--9-------------|
A|---------------------------------2-5----5------7-9---7-9-----------------|
E|--------------------------------------------------10---------------------|

e|-----------------------|   |--------------|
B|-----------------------|   |--------------|
G|-14bu16bd14-12---------|   |---/14-14-14--|
D|--------------16-14-14-|x4 |--------------|
A|-----------------------|   |--------------|
E|-----------------------|   |--------------|

e|---------------------------------------------15h17-17-17---------|
B|---------------14h15-15-15-15-15h17-17-17-17---------------------|
G|-13h14-14-14-14--------------------------------------------------|
D|-----------------------------------------------------------------|
A|-----------------------------------------------------------------|
E|-----------------------------------------------------------------|
                                                          (hold over chorus)
e|---------------------------------------------14h15-15-15-17--------------|
B|---------------14h15-15-15-15-15h17-17-17-17-----------------------------|
G|-13h14-14-14-14----------------------------------------------------------|
D|-------------------------------------------------------------------------|
A|-------------------------------------------------------------------------|
E|-------------------------------------------------------------------------|

Chorus
e|-5--5--5--5--7--7--7--7--9---9---9---9---10--10--10-10-------------|
B|-7--7--7--7--8--8--8--8--10--10--10--10--12--12--12-12-------------|
G|-7--7--7--7--9--9--9--9--11--11--11--11--12--12--12-12-11-9--------|
D|-7--7--7--7--9--9--9--9--11--11--11--11--12--12--12-12-11-9--------|
A|-5--5--5--5--7--7--7--7--9---9---9---9---10--10--10-10-9--7--------|
E|-------------------------------------------------------------------|
...
e|-5--5--5--5--7--7--7--7--9---9---9---9---10--10--10--10------------|
B|-7--7--7--7--8--8--8--8--10--10--10--10--12--12--12--12------------|
G|-7--7--7--7--9--9--9--9--11--11--11--11--12--12--12--12------------|
D|-7--7--7--7--9--9--9--9--11--11--11--11--12--12--12--12------------|
A|-5--5--5--5--7--7--7--7--9---9---9---9---10--10--10--10------------|
E|-------------------------------------------------------------------|
Outro
e|------------14--------14--12p10----------------14------14--12p10-------|
B|-------------------------------12p10---------------------------12p10---|
G|------14-----------14---------------------14--------14-----------------|
D|--12------------12-------------------12----------12--------------------|x2
A|-----------------------------------------------------------------------|
E|-----------------------------------------------------------------------|
2nd
e|------5----------------------------------------------------5-------------|
B|------7----------------------------------------------------7-------------|
G|------7----------------------------------------------------7-------------|
D|---xx-7-------------------------------------------------xx-7-------------|
A|---xx-5-------------------------------------------------xx-5-------------|
E|---xx---------------------------------------------------xx---------------|

Hold final 10(A) from Outro:
e|-------------------------------------------------------------------------|
B|-(10)~-----10\-----------------------------------------------------------|
G|-------------------------------------------------------------------------|
D|-------------------------------------------------------------------------|
A|-------------------------------------------------------------------------|
E|-------------------------------------------------------------------------|

| /  slide up
| \  slide down
| h  hammer-on
| p  pull-off
| ~  vibrato
| +  harmonic
| x  Mute note
| bu Bend Up
| bd Bend Down

N.B. 10bu12 is a singular note, bending 10 up to 12 (not bend up ten, and then play 12)

Please comment & rate
============================================================================





Comments


Popular Manic Street Preachers tabs & chords
Freedom Of Speech Won't Feed My Children 1 Bass Tabs
Always Never Chords
Ain't Going Down Tabs
Black Dog On My Shoulder Tabs
Born A Girl Tabs
Design For Life 2 Tabs
Further Away  1 Tabs
Let Robeson Sing (Intro) Tabs
Take The Skinheads Bowling Tabs
Born To End Ukulele


Song lyrics



↑ Back to top | Tablatures and chords are parodies/interpretations of the original songs. You may use it for private study, scholarship, research or language learning purposes only
© 2014 AZChords.com Contact us | Privacy policy | DMCA | Add/correct tabs | Request tabs | Top 50 tabs