» » »

Autumnsong Bass tabs (ver.1)

Artists:  A B C D E F G H I J K L M N O P Q R S T U V W X Y Z # 

Autumnsong Bass tabs (ver.1)

Manic Street Preachers
Rating:
0/5 (0 votes)

Hard to play? Try these video lessons and learn fast.
                Manic Street Preachers - Autumnsong
Send Away The Tigers - 2007

Intro
G||-------|-------|-------------------------|
D||-------|-------|--0----0-----0---0-------|
A||-------|-------|-----------0----------0--|
E||-------|-------|-------------------------|


-------------------------|
--0----0-----0---0-------|
-----------0----------0--|
-------------------------|

Verse
-------------------------|
--0----0-----0---0-------|
-----------0----------0--|
-------------------------|

-------------------------|-------------------------|
-------------------------|-------------------------|
-------------------------|-------------------------|
--2----2---2-2---2----2--|--3----3---3-3---3----3--|

-------------------------|-------------------------|
--0----0-----0---0-------|-------------------------|
-----------0--------4----|--2----2-----2---2-------|
-------------------------|-----------2----------2--|

-------------------------|-------------------------|
-------------------------|--0----0-----0---0----0--|
-------------------------|-----------0-------------|
--0----0---0-0---0----0--|-------------------------|

-------------------------|-------------------------|
-------------------------|--0----0-----0---0-------|
--0----0-----0---0-------|-----------0----------0--|
-----------0----------0--|-------------------------|

-------------------------|-------------------------|
-------------------------|-------------------------|
-------------------------|-------------------------|
--2----2---2-2---2----2--|--3----3---3-3---3----3--|

-------------------------|-------------------------|
--0----0-----0---0-------|-------------------------|
-----------0--------4----|--2----2-----2---2-------|
-------------------------|-----------2----------2--|

-------------------------|-------------------------|
-------------------------|--0----0-----0---0----0--|
-------------------------|-----------0-------------|
--0----0---0-0---0----0--|-------------------------|

--------------------------|--------------------------|
--------------------------|--------------------------|
--0--0--0--0--0--0--0--0--|--0--0--0--0--0--0--0--0--|
--------------------------|--------------------------|

Chorus 
-------------------------|-------------------------|
--0----0-----0---0-------|-------------------------|
-----------0----------0--|-------------------------|
-------------------------|--0----0---0-0---0----0--|

-------------------------|-------------------------|
-------------------------|-------------------------|
-------------------------|-------------------------|
--2----2---2-2---2----2--|--3----3---3-3---3----3--|
  
-------------------------|-------------------------|
--0----0-----0---0-------|-------------------------|
-----------0----------0--|-------------------------|
-------------------------|--0----0---0-0---0----0--|

-------------------------|-------------------------|
-------------------------|-------------------------|
-------------------------|-------------------------|
--2----2---2-2---2----2--|--3----3---3-3---3----3--|

Re-intro
-------------------------|-------------------------|
--0----0-----0---0-------|--0----0--0--------------|
-----------0----------0--|-------------4--2--0-----|
-------------------------|----------------------3--|

Verse
Chorus

Bridge

-------------------------|
-------------------------|
--0----0-----0---0-------|
-----------0----------0--|

-------------------------|-------------------------|
-------------------------|-------------------------|
--2----2-----2---2-------|--0----0-----0---0-------|
-----------2----------2--|-----------0----------0--|
 
-------------------------|-------------------------|
-------------------------|-------------------------|
--2----2-----2---2-------|-------------------------|
-----------2----------2--|--3----3---3-3---3----3--|
  
-------------------------|-------------------------|
-------------------------|-------------------------|
--2----2-----2---2-------|-------------------------|
-----------2----------2--|--0----0---0-3---3----3--|
             
-------------------|
-------------------|
--0----------------|
-------------------|

Solo (same as verse)
Chorus
Outro (same as intro)
            
Hard to play? Try these video lessons and learn fast. | Correct




comments powered by Disqus
↑ Back to top | Tablatures and chords are parodies/interpretations of the original songs. You may use it for private study, scholarship, research or language learning purposes only