» » »

Manic Drive, Walls Bass tabs (ver.1)

Artists:  A B C D E F G H I J K L M N O P Q R S T U V W X Y Z # 

Walls Bass tabs (ver.1)

Manic Drive Tabs
 Rating:
4/5 (4 votes)
Walls lessons Tabs too difficult? Try these video lessons and learn fast
1
                -------------------------------------------------------------------------------
-------------------------------------------------------------------------------

Tuning: Standard

Intro
G|----------------------------|    |-------|
D|----------------------------| x2 |-------|
A|----------------------------|    |-------|
E|--21~----17~----21~----19~--|    |--19\--|

G|------------------------------------|
D|------------------------------------| x2
A|------------------------------------|
E|--9-9-9-9\5-5-5-5/9-9-9-9\7-7-7-7/--|

Verse
G|--------------------------------------------------------------------|
D|--------------------------------------------------------------------| x2
A|--------------------------------------------------------------------|
E|--9-9-9-9-9-9-9-9\5-5-5-5-5-5-5-5/9-9-9-9-9-9-9-9\7-7-7-7-7-7-7-7/--|

Pre-Chorus
G|--------------------------------------------------------------------|
D|--------------------------------------------------------------------| 
A|--------------------------------------------------------------------|
E|--9-9-9-9-9-9-9-9\5-5-5-5-5-5-5-5/9-9-9-9-9-9-9-9\7-7-7-7-7-7-7-7/--|

G|-----------------------------------------------------------------------|
D|-----------------------------------------------------------------------|
A|-----------------------------------------------------------------------|
E|--9-9-9-9-9-9-9-9\5-5-5-5-5-5-5-5/9-9-9-9-9-9-9-9\7-7-7-7/21-21-21-21--|

Chorus
G|--------------------------------------------------------------------|
D|--------------------------------------------------------------------| x4
A|--------------------------------------------------------------------|
E|--9-9-9-9-9-9-9-9\5-5-5-5-5-5-5-5/9-9-9-9-9-9-9-9\7-7-7-7-7-7-7-7/--|

Verse
G|--------------------------------------------------------------------|
D|--------------------------------------------------------------------| x2
A|--------------------------------------------------------------------|
E|--9-9-9-9-9-9-9-9\5-5-5-5-5-5-5-5/9-9-9-9-9-9-9-9\7-7-7-7-7-7-7-7/--|

Pre-Chorus
G|--------------------------------------|
D|--------------------------------------|
A|--------------------------------------|
E|--/21~----19/21~----19/21~----19/21~--|

G|-----------------------------------------------------------------------|
D|-----------------------------------------------------------------------|
A|-----------------------------------------------------------------------|
E|--9-9-9-9-9-9-9-9\5-5-5-5-5-5-5-5/9-9-9-9-9-9-9-9\7-7-7-7/21-21-21-21--|

Chorus
G|--------------------------------------------------------------------|
D|--------------------------------------------------------------------| x4
A|--------------------------------------------------------------------|
E|--9-9-9-9-9-9-9-9\5-5-5-5-5-5-5-5/9-9-9-9-9-9-9-9\7-7-7-7-7-7-7-7/--|

Bridge
G|-------------|
D|-------------| Repeat throughout bridge!
A|-------------|
E|--9-9-9-7h9--|

Chorus
G|--------------------------------------------------------------------|
D|--------------------------------------------------------------------| x4
A|--------------------------------------------------------------------|
E|--9-9-9-9-9-9-9-9\5-5-5-5-5-5-5-5/9-9-9-9-9-9-9-9\7-7-7-7-7-7-7-7/--|

Outro
G|-------------|
D|-------------| x4
A|-------------|
E|--9-9-7h9-9--|

Cool song, requested by mdclay!



| /  slide up
| \  slide down
| h  hammer-on
| p  pull-off
| ~  let note ring
| +  harmonic
| x  Mute note
===============================================================================
            
Submit corrections

comments powered by Disqus
↑ Back to top | Manic Drive Bass for Walls. Lyrics for acoustic guitar and electric guitar. 1 Tablatures and chords are parodies/interpretations of the original songs. You may use it for private study, scholarship, research or language learning purposes only