» » »

Manic Drive, Nebulous Tabs (ver.1)

Artists:  A B C D E F G H I J K L M N O P Q R S T U V W X Y Z # 

Nebulous Tabs (ver.1)

Manic Drive Tabs
Rating:
0/5 (0 votes)
Nebulous lessons Tabs too difficult? Try these video lessons and learn fast
                Band: Manic Drive




Clean + Wah

					(INTRO)


D|----------------------------------------------|
A|----------------------------------------------|
F|----------------------------------------------|
C|--x-x-2h4-0--x-x-2h4-0--x-x-0h1---------------| x3
G|--x-x-2h4-0--x-x-2h4-0--x-x-0h1---------------|
C|--x-x-2h4-0--x-x-2h4-0--x-x-0h1---------------|



D|-------------|
A|-------------|
F|-------------|
C|--x-x-2h4-0--| 
G|--x-x-2h4-0--|
C|--x-x-2h4-0--|


Distortion


D|----------------------------------------------|      <-----|
A|----------------------------------------------|	     |
F|----------------------------------------------|            |
C|--x-x-2h4-0--x-x-2h4-0--x-x-0h1---------------| x3         |
G|--x-x-2h4-0--x-x-2h4-0--x-x-0h1---------------|            |
C|--x-x-2h4-0--x-x-2h4-0--x-x-0h1---------------|            |
							     |     x2
							     |
D|-------------------|				             |
A|-------------------|					     |
F|-------------------|					     |
C|--7-7-7--9-9-9-5---|                                       |
G|--7-7-7--9-9-9-5---|					     |
C|--7-7-7--9-9-9-5---|				       <-----|



					(VERSE)


D|----------------|
A|----------------|
F|----------------|
C|----------------|  X4
G|----------------|
C|--4--2--1--0----|



D|----------------|
A|----------------|
F|----------------|
C|--1////////-----|  
G|--1////////-----|
C|--1////////-----|



					(CHORUS)





D|----------------------------------------------|     <------|
A|----------------------------------------------|	     |
F|----------------------------------------------|            |
C|--x-x-2h4-0--x-x-2h4-0--x-x-0h1---------------| x3         |
G|--x-x-2h4-0--x-x-2h4-0--x-x-0h1---------------|            |
C|--x-x-2h4-0--x-x-2h4-0--x-x-0h1---------------|            |
							     |     x2
							     |
D|-------------------|				             |
A|-------------------|					     |
F|-------------------|					     |
C|--7-7-7--9-9-9-5---|                                       |
G|--7-7-7--9-9-9-5---|					     |
C|--7-7-7--9-9-9-5---|				       <-----|





					(VERSE)


D|----------------|
A|----------------|
F|----------------|
C|----------------|  X6
G|----------------|
C|--4--2--1--0----|



D|----------------|
A|----------------|
F|----------------|
C|--1////////-----|  
G|--1////////-----|
C|--1////////-----|



Repeat CHORUS


					(BRIDGE)



D|-------------|------------------------------------------|      <-----|
A|-------------|------------------------------------------|	       |
F|-------------|------------------------------------------|	       |
C|-15-15-15-15-|--4-4-4-4--7-7--12-12-12-12--11-11-11-11--|	       |
G|-15-15-15-15-|--4-4-4-4--7-7--12-12-12-12--11-11-11-11--|	       |
C|-15-15-15-15-|--4-4-4-4--7-7--12-12-12-12--11-11-11-11--|	       |
							               |    X2
							               |
D|------------------------------------------|		               | 
A|------------------------------------------|  		               | 
F|------------------------------------------|		               |
C|--4-4-4-4--7-7--12-12-12-12--15-15-15-15--|		               |
G|--4-4-4-4--7-7--12-12-12-12--15-15-15-15--|		               |
C|--4-4-4-4--7-7--12-12-12-12--15-15-15-15--|	                 <-----|


(guitar2)

D|-------------|
A|-------------|
F|-------------|
C|------6-5-6--|  x16
G|--9-9--------|
C|-------------|



Repeat CHORUS


Repeat VERSE




if there are any comments or errors 
            

comments powered by Disqus
↑ Back to top | Manic Drive Tabs for Nebulous. Lyrics for acoustic guitar and electric guitar. Tablatures and chords are parodies/interpretations of the original songs. You may use it for private study, scholarship, research or language learning purposes only