» » »

December Morning Bass tabs (ver.1)

Artists:  A B C D E F G H I J K L M N O P Q R S T U V W X Y Z # 

December Morning Bass tabs (ver.1)

Manic Drive
Rating:
0/5 (0 votes)

Hard to play? Try these video lessons and learn fast.
                -------------------------------------------------------------------------------
-------------------------------------------------------------------------------




Tuning: standard

G|---------------------------------------------------|
D|---------------------------------------------------|
A|---------------------------------------------------|
E|------5-----------------5--------------------------|

G|-------------------------------------------------|
D|-------------------------------------------------|
A|-------------------------------------------------|
E|------55-----------------0-5---------------------|

G|-------------------------------------------------|
D|-------------------------------------------------|
A|-------------------------------------------------|
E|-----0-5-----------------0-5-------------------0-|

G|-----------------------------------------|
D|-----------------------------------------|
A|-----------------------------------------|
E|-------5-----3-----1------0--------------|

G|------------------------------------------------------------------------|
D|------------------------------------------------------------------------|
A|------------------------------------------------------------------------|
E|-------17-----16-----15------14-------13------12--------0-0----5/12-----|

G|--------------------------------------------------|
D|-------7-----6------5----4--------------------2~--|
A|---------------------------------3----2-----------|
E|---------\5----7-3----3----5-3-1---0-----0--------|

G|----------------------------------------------------------------|
D|----------------------------------------------------------------|
A|----------------------------------------------------------------|
E|---5---0-1-1--x-x-x-x-1-3-1-x-x-1-1-x-1-1-x-3-3-x-5-------------|

Bridge
G|--------------------------------------------|
D|--------------------------------------------|
A|--------------------------------------------|
E|--------15~~~-------------------------------|

G|-------------------------------------------------------|
D|-------------------------------------------------------|
A|-------------------------------------------------------|
E|----5-5-5-5-4-4-4-4-3-3-3-3-2-2-2-2-1-1-1-1-0-0-0-0-0--|

G|-------------------------------------------------------|
D|-------------------------------------------------------|
A|---12-12-12-12-12-12-12-12-----------------------------|
E|----------------------------0-0-0-0-12-12-12-12--------|




| /  slide up
| \  slide down
| h  hammer-on
| p  pull-off
| ~  vibrato
| +  harmonic
| x  Mute note
===============================================================================
            
Hard to play? Try these video lessons and learn fast. | Correct




comments powered by Disqus
↑ Back to top | Tablatures and chords are parodies/interpretations of the original songs. You may use it for private study, scholarship, research or language learning purposes only