» » »

Manic Drive, Dancefloor Bass tabs (ver.1)

Artists:  A B C D E F G H I J K L M N O P Q R S T U V W X Y Z # 

Dancefloor Bass tabs (ver.1)

Manic Drive Tabs
Rating:
5/5 (1 vote)
Dancefloor lessons Tabs too difficult? Try these video lessons and learn fast
                -------------------------------------------------------------------------------
-------------------------------------------------------------------------------


Tuning: Standard

Intro: no bass

Verse 1: 0:08	4x’s
G|-----------------------------------------------------------------|
D|-----------------------------------------------------------------|
A|—0——–1–0—0-----1--0--0—------------------------------------------|
E|——-3--------3----------------------------------------------------|

Pre-Chorus:	 4x’s
G|-----------------------------------------------------------------|
D|-----------------------------------------------------------------|
A|–0-----1--0--0------1--0--0--------------------------------------|
E|----3------------3-----------------------------------------------|

Chorus :	 2x’s
G|---------------------------------------------------------------------------|
D|---------------------------------------------------------------------------|
A|-00000000-00000000—33333333-33333333-22222222-22222222-11111111-11111111—--|
E|---------------------------------------------------------------------------|

Verse 2		4x’s
G|---------|---------------------------------------------------------------|
D|---------|----------------------------------------------------------- ---|
A|–0\—-0\--|---0-----1--0--0-----1--0--0-----------------------------------|
E|---------|------3-----------3--------------------------------------------|

Pre-Chorus	4x’s
G|-----------------------------------------------------------------------------|
D|-----------------------------------------------------------------------------|
A|–0-----1--0--0-----1--0--0---------------------------------------------------|
E|----3-----------3------------------------------------------------------------|

Bridge
G|----------------------------------------------|
D|----------------------------------------------|2x’s
A|–33333333-33333333–55555555-55555555----------|
E|----------------------------------------------|

G|----------------------------------------------------------------|
D|----------------------------------------------------------------| 5x’s
A|–0-----1--0--0-----1--0--0--------------------------------------|
E|----3-----------3-----------------------------------------------|

Chorus: enter at 2:28		2x’s
G|---------------------------------------------------------------------------|
D|---------------------------------------------------------------------------|
A|–00000000-00000000-33333333-33333333-22222222-22222222-11111111-11111111---|
E|---------------------------------------------------------------------------|

Outro
G|-------------------------------------------------------------|
D|-------------------------------------------------------------| 4x’s
A|–0-----1--0--0-----1--0--0-----------------------------------|
E|----3-----------3--------------------------------------------|

G|---------------------------------------------------------------------------|
D|---------------------------------------------------------------------------|
A|-00000000-00000000-33333333-33333333-22222222-22222222-11111111-11111111---|
E|---------------------------------------------------------------------------|

G|---------------------------------------------------------------------------|
D|---------------------------------------------------------------------------|
A|-00000000-00000000-33333333-33333333-22222222-22222222-11111111-11111111-0-|
E|---------------------------------------------------------------------------|


| /  slide up
| \  slide down
| h  hammer-on
| p  pull-off
| ~  vibrato
| +  harmonic
| x  Mute note
===============================================================================
            

comments powered by Disqus
↑ Back to top | Manic Drive Bass for Dancefloor. Lyrics for acoustic guitar and electric guitar. Tablatures and chords are parodies/interpretations of the original songs. You may use it for private study, scholarship, research or language learning purposes only