>
 >
Dancefloor

Dancefloor Bass Tabs

Manic Drive - Dancefloor chords, tabs, tablatures, lyrics

Guitar lessons | Add/correct | Request | Top 50 tabs Artists:  A B C D E F G H I J K L M N O P Q R S T U V W X Y Z 0-9

Dancefloor Bass Tabs – Manic Drive

CD, Sheet music, Poster

Do you like Dancefloor? Share with your friends now
Bass Tabs
-------------------------------------------------------------------------------
-------------------------------------------------------------------------------


Tuning: Standard

Intro: no bass

Verse 1: 0:08	4xs
G|-----------------------------------------------------------------|
D|-----------------------------------------------------------------|
A|0100-----1--0--0------------------------------------------|
E|-3--------3----------------------------------------------------|

Pre-Chorus:	 4xs
G|-----------------------------------------------------------------|
D|-----------------------------------------------------------------|
A|0-----1--0--0------1--0--0--------------------------------------|
E|----3------------3-----------------------------------------------|

Chorus :	 2xs
G|---------------------------------------------------------------------------|
D|---------------------------------------------------------------------------|
A|-00000000-0000000033333333-33333333-22222222-22222222-11111111-11111111--|
E|---------------------------------------------------------------------------|

Verse 2		4xs
G|---------|---------------------------------------------------------------|
D|---------|----------------------------------------------------------- ---|
A|0\-0\--|---0-----1--0--0-----1--0--0-----------------------------------|
E|---------|------3-----------3--------------------------------------------|

Pre-Chorus	4xs
G|-----------------------------------------------------------------------------|
D|-----------------------------------------------------------------------------|
A|0-----1--0--0-----1--0--0---------------------------------------------------|
E|----3-----------3------------------------------------------------------------|

Bridge
G|----------------------------------------------|
D|----------------------------------------------|2xs
A|33333333-3333333355555555-55555555----------|
E|----------------------------------------------|

G|----------------------------------------------------------------|
D|----------------------------------------------------------------| 5xs
A|0-----1--0--0-----1--0--0--------------------------------------|
E|----3-----------3-----------------------------------------------|

Chorus: enter at 2:28		2xs
G|---------------------------------------------------------------------------|
D|---------------------------------------------------------------------------|
A|00000000-00000000-33333333-33333333-22222222-22222222-11111111-11111111---|
E|---------------------------------------------------------------------------|

Outro
G|-------------------------------------------------------------|
D|-------------------------------------------------------------| 4xs
A|0-----1--0--0-----1--0--0-----------------------------------|
E|----3-----------3--------------------------------------------|

G|---------------------------------------------------------------------------|
D|---------------------------------------------------------------------------|
A|-00000000-00000000-33333333-33333333-22222222-22222222-11111111-11111111---|
E|---------------------------------------------------------------------------|

G|---------------------------------------------------------------------------|
D|---------------------------------------------------------------------------|
A|-00000000-00000000-33333333-33333333-22222222-22222222-11111111-11111111-0-|
E|---------------------------------------------------------------------------|


| /  slide up
| \  slide down
| h  hammer-on
| p  pull-off
| ~  vibrato
| +  harmonic
| x  Mute note
===============================================================================





Comments


Popular Manic Drive tabs & chords
Blue Bass Tabs
Hope Bass Tabs
Banana Song Chords
Money Chords
Dancefloor Intro Tabs
Luckiest Tabs
Nebulous Tabs
Something More Tabs
Tragedy Tabs
Save A Life Ukulele


Song lyrics



↑ Back to top | Tablatures and chords are parodies/interpretations of the original songs. You may use it for private study, scholarship, research or language learning purposes only
© 2014 AZChords.com Contact us | Privacy policy | DMCA | Add/correct tabs | Request tabs | Top 50 tabs