» » »

We Could Be The Same Tabs (ver.1)

Artists:  A B C D E F G H I J K L M N O P Q R S T U V W X Y Z # 

We Could Be The Same Tabs (ver.1)

Manga
Rating:
5/5 (1 vote)

Hard to play? Try these video lessons and learn fast.
                Notes by RaidonTR
Guitar is in Drop D

0:12 - 0:14
-----------------------------------|
-----------------------------------|
-----------------------------------|
--1-1-1-1-1-1-1-1------------------|
--1-1-1-1-1-1-1-1------------------|
--1-1-1-1-1-1-1-1------------------|

0:14 - 0:26
-----------------------------------|
-----------------------------------|
-----------------------------------|
-8-8--88-8--8-8-88-8---------------|
-6-6--66-6--6-6-66-6---------------|
-----------------------------------|

-----------------------------------|
-----------------------------------|
-----------------------------------|
-8-8--88-8--8-8--10-10-11-11-10-10-|
-6-6--66-6--6-6--8--8--9--9--8--8--|
-----------------------------------|

------------------------------------|
------------------------------------|
------------------------------------|
-6-6-66-6--6-6--66-6--11-11-1111-11-|
-4-4-44-4--4-4--44-4--9--9--9-9--9--|
------------------------------------|

0:43 - 0:56
-----------------------------------|
-----------------------------------|
-11-11-11-11-11-11-11-11-----------| (16x hizli)
-----------------------------------|
-----------------------------------|
-----------------------------------|

-----------------------------------|
-----------------------------------|
-10-10-10-10-10-10-10-10-----------|(16x hizli)
-----------------------------------|
-----------------------------------|
-----------------------------------|

-----------------------------------|
-----------------------------------|
-10-10-10-10-13-13-11-11-----------|(16x hizli)
-----------------------------------|
-----------------------------------|
-----------------------------------|

-----------------------------------|
-----------------------------------|
-8-8-8-8-8-8-8-8-------------------|(16x hizli)
-----------------------------------|
-----------------------------------|
-----------------------------------|

-----------------------------------|
-----------------------------------|
-15-15-15-15-15-15-15-15-----------|(16x hizli)
-----------------------------------|
-----------------------------------|
-----------------------------------|

-----------------------------------|
-----------------------------------|
-13-13-13-13-13-13-13-13-----------|(16x hizli)
-----------------------------------|
-----------------------------------|
-----------------------------------|

-----------------------------------|
-----------------------------------|
-19-19-19-19-19-19-19-19-----------|(16x hizli)
-----------------------------------|
-----------------------------------|
-----------------------------------|

-----------------------------------|
-----------------------------------|
-15-15-15-15-15-15-15-15-----------|(16x hizli)
-----------------------------------|
-----------------------------------|
-----------------------------------|

0:57 - 1:11
------------------------------------|
------------------------------------|
------------------------------------|
-13---11---6---9---11---13---11---6-|
-13---11---6---9---11---13---11---6-|
-13---11---6---9---11---13---11---6-|

1:12 - 1:25
-----------------------------------|
-----------------------------------|
-----------------------------------|
-8-8--88-8--8-8-88-8---------------|
-6-6--66-6--6-6-66-6---------------|
-----------------------------------|

-----------------------------------|
-----------------------------------|
-----------------------------------|
-8-8--88-8--8-8--10-10-11-11-10-10-|
-6-6--66-6--6-6--8--8--9--9--8--8--|
-----------------------------------|

------------------------------------|
------------------------------------|
------------------------------------|
-6-6-66-6--6-6--66-6--11-11-1111-11-|
-4-4-44-4--4-4--44-4--9--9--9-9--9--|
------------------------------------|

1:41 - 1:53
-----------------------------------|
-----------------------------------|
-11-11-11-11-11-11-11-11-----------| (16x hizli)
-----------------------------------|
-----------------------------------|
-----------------------------------|

-----------------------------------|
-----------------------------------|
-10-10-10-10-10-10-10-10-----------|(16x hizli)
-----------------------------------|
-----------------------------------|
-----------------------------------|

-----------------------------------|
-----------------------------------|
-10-10-10-10-13-13-11-11-----------|(16x hizli)
-----------------------------------|
-----------------------------------|
-----------------------------------|

-----------------------------------|
-----------------------------------|
-8-8-8-8-8-8-8-8-------------------|(16x hizli)
-----------------------------------|
-----------------------------------|
-----------------------------------|

-----------------------------------|
-----------------------------------|
-15-15-15-15-15-15-15-15-----------|(16x hizli)
-----------------------------------|
-----------------------------------|
-----------------------------------|

-----------------------------------|
-----------------------------------|
-13-13-13-13-13-13-13-13-----------|(16x hizli)
-----------------------------------|
-----------------------------------|
-----------------------------------|

-----------------------------------|
-----------------------------------|
-19-19-19-19-19-19-19-19-----------|(16x hizli)
-----------------------------------|
-----------------------------------|
-----------------------------------|

-----------------------------------|
-----------------------------------|
-15-15-15-15-15-15-15-15-----------|(16x hizli)
-----------------------------------|
-----------------------------------|
-----------------------------------|

1:55 - 2:09
------------------------------------|
------------------------------------|
------------------------------------|
-13---11---6---9---11---13---11---6-|
-13---11---6---9---11---13---11---6-|
-13---11---6---9---11---13---11---6-|

2:20 - 2:23
-----------------------------------|
-----------------------------------|
-----------------------------------|
--1-1-1-1-1-1-1-1------------------|
--1-1-1-1-1-1-1-1------------------|
--1-1-1-1-1-1-1-1------------------|

2:24 - 2:36
------------------------------------|
------------------------------------|
------------------------------------|
-13---11---6---9---11---13---11---6-|
-13---11---6---9---11---13---11---6-|
-13---11---6---9---11---13---11---6-|

2:42 - 2:555
-----------------------------------|
-----------------------------------|
-----------------------------------|
-8-8--88-8--8-8-88-8---------------|
-6-6--66-6--6-6-66-6---------------|
-----------------------------------|

-----------------------------------|
-----------------------------------|
-----------------------------------|
-8-8--88-8--8-8--10-10-11-11-10-10-|
-6-6--66-6--6-6--8--8--9--9--8--8--|
-----------------------------------|

------------------------------------|
------------------------------------|
------------------------------------|
-6-6-66-6--6-6--66-6--11-11-1111-11-|
-4-4-44-4--4-4--44-4--9--9--9-9--9--|
------------------------------------|
            
Hard to play? Try these video lessons and learn fast. | Correct




comments powered by Disqus
↑ Back to top | Tablatures and chords are parodies/interpretations of the original songs. You may use it for private study, scholarship, research or language learning purposes only