» » »

Manfred Mann, Im Your Hoochie Coochie Man Bass tabs (ver.1)

Artists:  A B C D E F G H I J K L M N O P Q R S T U V W X Y Z # 

Im Your Hoochie Coochie Man Bass tabs (ver.1)

Manfred Mann Tabs
 Rating:
4/5 (4 votes)
Im Your Hoochie Coochie Man lessons Tabs too difficult? Try these video lessons and learn fast
                (I'm Your) Hoochie Coochie Man
Manfred Mann
Written by Willie Dixon; released on the album "The Five Faces Of Manfred 
Mann" in the UK and on "The Manfred Mann Album" in the USA.

Verse:
G|------ ------ ------ ------|------ ------ ------ ------|
D|---------------------------|-------------------------3-|
A|---------------------------|-----------------------5---|
E|---------------------------|------------------3--6-----|



G|------ ------ ------ ------|------ ------ ------ ------|
D|-------------------------3-|-------------------------3-|
A|-----------------------5---|-----------------------5---|
E|3---3--3---3--3---3--6-----|3---3--3---3--3---3--6-----|
      Gypsy told mother           just while I was born:
         woman  my                   a   before

G|------ ------ ------ ------|------ ------ ------ ------|
D|-------------------------3-|-------------------------3-|
A|-----------------------5---|-----------------------5---|
E|3---3--3---3--3---3--6-----|3---3--3---3--3---3--6-----|
     "You've a boy comin',      he's be a of a gun,
         got    child             gonna  son

G|------ ------ ------ ------|------ ------ ------ ------|
D|-------------------------3-|-------------------------3-|
A|-----------------------5---|-----------------------5---|
E|3---3--3---3--3---3--6-----|3---3--3---3--3---3--6-----|
      He's make  women            all  and shout,
         gonna pretty                jump 

G|------ ------ ------ ------|------ ------ ------ ------|
D|-------------------------3-|5---5-----------8----------|
A|-----------------------5---|-------8---8--10--10-8-----|
E|3---3--3---3--3---3--6-----|----------------------10-9-|
    then world wanna          what's all about."  But know I'm
        the        know           this             you

G|------ ------ ------ ------|------ ------ ------ ------|
D|-------7---5--8------7\----|-------7---5--8------7\----|
A|---------------------------|---------------------------|
E|8------------------------6-|8--------------------------|
  him,                               every- body     knows I'm


G|------ ------ ------ ------|------ ------ ------ ------|
D|-------2---0--3------2-----|-------2---0--3------2-----|
A|---------------------------|---------------------------|
E|3--------------------------|3--------------------------|
  him,                                               I'm your


G|------ 4----- 5----- 4-----|------ 2---0- 3----- 2-----|
D|-----------7---------------|-------------------------3-|
A|5------------------------5-|3---3----------------------|
E|---------------------------|---------------------------|
  Hoochie coochie man,               every- body     knows I'm


G|------ ------ ------ ------|------ ----3- 5-7--- 3-----|
D|5---5----------------------|-------3-5--------5----5-3-|
A|-------8-8-8--7-7-7--6-6-6-|5-5-5----------------------|
E|---------------------------|---------------------------|
  him.

Verse:
G|------ ------ ------ ------|------ ------ ------ ------|
D|-------------------------3-|-------------------------3-|
A|-----------------------5---|-----------------------5---|
E|3---3--3---3--3---3--6-----|3---3--3---3--3---3--6-----|
    I've a   cat                I've a   too,
      got black bone,             got mojo

G|------ ------ ------ ------|------ ------ ------ ------|
D|-------------------------3-|-------------------------3-|
A|-----------------------5---|-----------------------5---|
E|3---3--3---3--3---3--6-----|3---3--3---3--3---3--6-----|
    I've a   Concheroo,         I'm mess    you,
      got Johnny                  gonna with

G|------ ------ ------ ------|------ ------ ------ ------|
D|-------------------------3-|-------------------------3-|
A|-----------------------5---|-----------------------5---|
E|3---3--3---3--3---3--6-----|3---3--3---3--3---3--6-----|
    I'm  make you                 lead by my hand,
      gonna all girls                me

G|------ ------ ------ ------|------ ------ ------ ------|
D|-------------------------3-|5---5-----------8----------|
A|-----------------------5---|-------8---8--10--10-8-----|
E|3---3--3---3--3---3--6-----|----------------------10-9-|
    then world's know    I'm  Hoochie coochie man, you I'm
      the    gonna         your                 But  know

G|------ ------ ------ ------|------ ------ ------ ------|
D|-------7---5--8------7\----|-------7---5--8------7\----|
A|---------------------------|---------------------------|
E|8---8--------------------6-|8--------------------------|
  him,                               every- body     knows I'm


G|------ ------ ------ ------|------ ------ ------ ------|
D|5---5--2---0--3------2-----|---------------------------|
A|---------------------------|-------7---5--8------7---6-|
E|-------------------------1-|3--------------------------|
  him,                                               I'm your


G|------ 4----- 5----- 4-----|------ 2---0- 3----- 2-----|
D|-----------7---------------|-------------------------3-|
A|5------------------------5-|3---3----------------------|
E|---------------------------|---------------------------|
  Hoochie coochie man,               every- body     knows I'm


G|------ ------ ------ ------|------ ----3- 5-7--- ------|
D|5---5----------------------|-------3-5--------5--5-5-3-|
A|-------8---8--7---7--6---6-|5---5----------------------|
E|---------------------------|---------------------------|
  him.                          All  let's  some your  now, son!
                                 right,  hear  of  guitar
Break (solo):
G|------ ------ ------ ------|------ ------ ------ ------|
D|-------2---2--3---3--2---2-|-------2---2--3---3--2---2-|
A|---------------------------|---------------------------|
E|3---3----------------------|3---3----------------------|



G|------ ------ ------ ------|------ ------ ------ ------|
D|-------2---2--3---3--2---2-|-------2---2--3---3--2-----|
A|---------------------------|-------------------------1-|
E|3---3----------------------|3---3----------------------|



G|------ 2---2- 3---3- 2-----|------ 2---2- 3---3- 2-----|
D|---------------------------|-------------------------3-|
A|3---3--------------------1-|3---3----------------------|
E|---------------------------|---------------------------|



G|------ ------ ------ ------|------ ------ ------ ------|
D|-------2---2--3---3--2-----|-------2---2--3---3--2---1-|
A|---------------------------|---------------------------|
E|3---3--------------------1-|3---3----------------------|



G|------ ------ ------ ------|------ 2---2- 3---3- 2-----|
D|0---0--9---9--10--10-9\----|-------------------------3-|
A|-------------------------1-|3---3----------------------|
E|---------------------------|---------------------------|



G|------ ------ ------ ------|------ ----3- 5-7--- 3-----|
D|5---5----------------------|-------3-5--------5----5-3-|
A|-------8---8--7-7-7--6-6-6-|5-5-5----------------------|
E|---------------------------|---------------------------|


Verse:
G|------ ------ ------ ------|------ ------ ------ ------|
D|-------------------------3-|-------------------------3-|
A|-----------------------5---|-----------------------5---|
E|3---3--3---3--3---3--6-----|3---3--3---3--3---3--6-----|
      On seventh                  on seventh
        the  hour,                  the   day,

G|------ ------ ------ ------|------ ------ ------ ------|
D|-------------------------3-|-------------------------3-|
A|-----------------------5---|-----------------------5---|
E|3---3--3---3--3---3--6-----|3---3--3---3--3---3--6-----|
      on seventh                the  doctor said:
        the  month,               seventh

G|------ ------ ------ ------|------ ------ ------ ------|
D|-------------------------3-|-------------------------3-|
A|-----------------------5---|-----------------------5---|
E|3---3--3---3--3---3--6-----|3---3--3---3--3---3--6-----|
     "He born good              and you'll
        was for luck,             that  see."

G|------ ------ ------ ------|------ ------ ------ ------|
D|-------------------------3-|5-5-5-----------8----------|
A|-----------------------5---|-------8-8-8--10--10-8-----|
E|3---3--3---3--3---3--6-----|----------------------10-9-|
    I've seven dollars, people don't mess   me, But know
      got hundred                 you    with      you I'm

G|------ ------ ------ ------|------ ------ ------ ------|
D|-------7---5--8------7\----|-------7---5--8------7\----|
A|---------------------------|---------------------------|
E|8---8--------------------6-|8---8--------------------1-|
  him,                               every- body     knows I'm


G|------ ------ ------ ------|------ ------ ------ ------|
D|-------2---0--3------2-----|-------2---0--3------2---1-|
A|---------------------------|---------------------------|
E|3---3--------------------1-|3---3----------------------|
  him,                                               I'm your

                              (slower tempo)
G|------ ------ ------ ------|------ ------ ------ ------|
D|0---0--9---7--10--10-9\----|---------------------------|
A|-----------------------5-4-|3--------------------------|
E|---------------------------|---------------------------|
  Hoochie coochie man,               every- body     knows I'm


G|------ ------ ------ ------|------ ------ ------ ------|
D|5---5----------------------|-------5---5---------------|
A|-------8---8--7---7--6---6-|5---5----------------------|
E|---------------------------|---------------------------|
  him.

Please e-mail me for any corrections, or write a comment.
            
Submit corrections

comments powered by Disqus
↑ Back to top | Manfred Mann Bass for Im Your Hoochie Coochie Man. Lyrics for acoustic guitar and electric guitar. Tablatures and chords are parodies/interpretations of the original songs. You may use it for private study, scholarship, research or language learning purposes only