» » »

Manfred Mann, 5-4-3-2-1 Bass tabs (ver.1)

Artists:  A B C D E F G H I J K L M N O P Q R S T U V W X Y Z # 

5-4-3-2-1 Bass tabs (ver.1)

Manfred Mann Tabs
Rating:
0/5 (0 votes)
5-4-3-2-1 lessons Tabs too difficult? Try these video lessons and learn fast
                Manfred Mann
Written by Mike Hugg, Manfred Mann and Paul Jones; released as a single 
with "Without You" as the B-side.

Intro:
G|------- ------- ------- -------|------- ------- ------- -------|
D|3------------------------------|1------------------------------|
A|-------------------------------|-------------------------------|
E|-------------------------------|-------------------------------|
  Five,                           four,


G|------- ------- ------- -------|------- ------- ------- -------|
D|-------------------------------|-------------------------------|
A|3------------------------------|-------------------------------|
E|-------------------------------|4------------------------------|
  three,                          two,


G|------- ------- ------- -------|------- ------- ------- -------|
D|--------7-------10------7------|--------7-------10------7------|
A|8------------------------------|8------------------------------|
E|-------------------------------|-------------------------------|
  one.


G|------- ------- ------- -------|------- ------- ------- -------|
D|--------5-------8-------5------|--------7-------10------7------|
A|6------------------------------|8------------------------------|
E|-------------------------------|-------------------------------|
  Five,   four,   three,  two, one


G|------- ------- ------- -------|------- ------- ------- -------|
D|--------7-------10------7------|--------7-------10------7------|
A|8------------------------------|8------------------------------|
E|-------------------------------|-------------------------------|



G|------- ------- ------- -------|------- ------- ------- -------|
D|--------5-------8-------5------|--------7-------10------7------|
A|6------------------------------|8------------------------------|
E|-------------------------------|-------------------------------|
  Five,   four,   three,  two, one


G|------- ------- ------- -------|------- ------- ------- -------|
D|-------------------------------|-------------------------------|
A|--------5-------8-------5------|--------5-------8-------5------|
E|6------------------------------|6------------------------------|



G|------- ------- ------- -------|------- ------- ------- -------|
D|-------------------------------|-------------------------------|
A|--------3-------6-------3------|--------5-------8-------5------|
E|4------------------------------|6------------------------------|
  Five,   four,   three,  two, one


G|------- ------- ------- -------|------- ------- ------- -------|
D|--------7-------10------7------|--------7-------10------7------|
A|8------------------------------|8------------------------------|
E|-------------------------------|-------------------------------|



G|------- ------- ------- -------|------- ------- ------- -------|
D|--------5-------8-------5------|--------7-------10------7------|
A|6------------------------------|8------------------------------|
E|-------------------------------|-------------------------------|
  Five,   four,   three,  two, one


G|------- ------- ------- -------|------- ------- ------- -------|
D|-------------------------------|-------------------------------|
A|--------7-------10------7------|--------5-------8-------5------|
E|8------------------------------|6------------------------------|



G|------- ------- ------- -------|------- ------- ------- -------|
D|--------7-------10------7------|-------------------------------|
A|8------------------------------|-------------------------------|
E|-------------------------------|8-------8-------8--------------|


Verse:
G|------- ------- ------- -------|------- ------- ------- -------|
D|--------7-------10------7------|--------7-------10------7------|
A|8------------------------------|8------------------------------|
E|-------------------------------|-------------------------------|



G|------- ------- ------- -------|------- ------- ------- -------|
D|--------5-------8-------5------|--------7-------10------7------|
A|6------------------------------|8------------------------------|
E|-------------------------------|-------------------------------|
  Five,   four,   three,  two, one


G|------- ------- ------- -------|------- ------- ------- -------|
D|--------7-------10------7------|--------7-------10------7------|
A|8------------------------------|8------------------------------|
E|-------------------------------|-------------------------------|



G|------- ------- ------- -------|------- ------- ------- -------|
D|--------5-------8-------5------|--------7-------10------7------|
A|6------------------------------|8------------------------------|
E|-------------------------------|-------------------------------|
  Five,   four,   three,  two, one


G|------- ------- ------- -------|------- ------- ------- -------|
D|--------7-------10------7------|--------7-------10------7------|
A|8------------------------------|8------------------------------|
E|-------------------------------|-------------------------------|
  Al   -  ways    on   -  ward, rode  the six     hundred,


G|------- ------- ------- -------|------- ------- ------- -------|
D|--------5-------8-------5------|--------7-------10------7------|
A|6------------------------------|8------------------------------|
E|-------------------------------|-------------------------------|
  five,   four,   three,  two, one


G|------- ------- ------- -------|------- ------- ------- -------|
D|--------7-------10------7------|--------7-------10------7------|
A|8------------------------------|8------------------------------|
E|-------------------------------|-------------------------------|
  Down    the val  -  ley on  the horses  they    thundered,


G|------- ------- ------- -------|------- ------- ------- -------|
D|--------5-------8-------5------|--------7-------10------7------|
A|6------------------------------|8------------------------------|
E|-------------------------------|-------------------------------|
  five,   four,   three,  two, one                            Oh,


G|------- ------- ------- -------|------- ------- ------- -------|
D|-------------------------------|-------------------------------|
A|--------5-------8-------5------|--------5-------8-------5------|
E|6------------------------------|6------------------------------|
      but once    down,   they    real  - ly  blun  - dered,
              they're

G|------- ------- ------- -------|------- ------- ------- -------|
D|-------------------------------|-------------------------------|
A|--------3-------6-------3------|--------5-------8-------5------|
E|4------------------------------|6------------------------------|
  five,   four,   three,  two, one


G|------- ------- ------- -------|------- ------- ------- -------|
D|-------------------------------|-------------------------------|
A|8------------------------------|-------------------------------|
E|-------------------------------|-------------------------------|
          A - ha,     it  was the Man     -       freds!


G|------- ------- ------- -------|------- ------- ------- -------|
D|-------------------------------|-------------------------------|
A|--------7-------10------7------|--------5-------8-------5------|
E|8------------------------------|6------------------------------|



G|------- ------- ------- -------|------- ------- ------- -------|
D|--------7-------10------7------|-------------------------------|
A|8------------------------------|-------------------------------|
E|-------------------------------|8-------8-------8--------------|


Verse:
G|------- ------- ------- -------|------- ------- ------- -------|
D|--------7-------10------7------|--------7-------10------7------|
A|8------------------------------|8------------------------------|
E|-------------------------------|-------------------------------|



G|------- ------- ------- -------|------- ------- ------- -------|
D|--------5-------8-------5------|--------7-------10------7------|
A|6------------------------------|8------------------------------|
E|-------------------------------|-------------------------------|
  Five,   four,   three,  two, one


G|------- ------- ------- -------|------- ------- ------- -------|
D|--------7-------10------7------|--------7-------10------7------|
A|8------------------------------|8------------------------------|
E|-------------------------------|-------------------------------|



G|------- ------- ------- -------|------- ------- ------- -------|
D|--------5-------8-------5------|--------7-------10------7------|
A|6------------------------------|8------------------------------|
E|-------------------------------|-------------------------------|
  Five,   four,   three,  two, one                            The


G|------- ------- ------- -------|------- ------- ------- -------|
D|--------7-------10------7------|--------7-------10------7------|
A|8------------------------------|8------------------------------|
E|-------------------------------|-------------------------------|
  sol  -  diers   waited  at  the gate    for weeks,


G|------- ------- ------- -------|------- ------- ------- -------|
D|--------5-------8-------5------|--------7-------10------7------|
A|6------------------------------|8------------------------------|
E|-------------------------------|-------------------------------|
  five,   four,   three,  two, one                        In  a


G|------- ------- ------- -------|------- ------- ------- -------|
D|--------7-------10------7------|--------7-------10------7------|
A|8------------------------------|8------------------------------|
E|-------------------------------|-------------------------------|
  woo  -  den horse       to  the ci- ty  they    sneaked,


G|------- ------- ------- -------|------- ------- ------- -------|
D|--------5-------8-------5------|--------7-------10------7------|
A|6------------------------------|8------------------------------|
E|-------------------------------|-------------------------------|
  five,   four,   three,  two, one


G|------- ------- ------- -------|------- ------- ------- -------|
D|-------------------------------|-------------------------------|
A|--------5-------8-------5------|--------5-------8-------5------|
E|6------------------------------|6------------------------------|
  Who     let them in,        who was it, the Greeks?


G|------- ------- ------- -------|------- ------- ------- -------|
D|-------------------------------|-------------------------------|
A|--------3-------6-------3------|--------5-------8-------5------|
E|4------------------------------|6------------------------------|
  Five,   four,   three,  two, one


G|------- ------- ------- -------|------- ------- ------- -------|
D|-------------------------------|-------------------------------|
A|8------------------------------|-------------------------------|
E|-------------------------------|-------------------------------|
          A - ha,     it  was the Man     -       freds!


G|------- ------- ------- -------|------- ------- ------- -------|
D|-------------------------------|-------------------------------|
A|----------------7-------10-----|--------5-------8-------5------|
E|8-------8----------------------|6------------------------------|



G|------- ------- ------- -------|------- ------- ------- -------|
D|--------7-------10------7------|-------------------------------|
A|8------------------------------|------------------------7------|
E|-------------------------------|8-------8-------8--------------|


Verse:
G|------- ------- ------- -------|------- ------- ------- -------|
D|--------7-------10------7------|--------7-------10------7------|
A|8------------------------------|8------------------------------|
E|-------------------------------|-------------------------------|



G|------- ------- ------- -------|------- ------- ------- -------|
D|--------5-------8-------5------|--------7-------10------7------|
A|6------------------------------|8------------------------------|
E|-------------------------------|-------------------------------|
  Five,   four,   three,  two, one


G|------- ------- ------- -------|------- ------- ------- -------|
D|--------7-------10------7------|--------7-------10------7------|
A|8------------------------------|8------------------------------|
E|-------------------------------|-------------------------------|



G|------- ------- ------- -------|------- ------- ------- -------|
D|--------5-------8-------5------|--------7-------10------7------|
A|6------------------------------|8------------------------------|
E|-------------------------------|-------------------------------|
  Five,   four,   three,  two, one


G|------- ------- ------- -------|------- ------- ------- -------|
D|--------7-------10------7------|--------7-------10------7------|
A|8------------------------------|8------------------------------|
E|-------------------------------|-------------------------------|



G|------- ------- ------- -------|------- ------- ------- -------|
D|--------5-------8-------5------|--------7-------10------7------|
A|6------------------------------|8------------------------------|
E|-------------------------------|-------------------------------|
  Five,   four,   three,  two, one


G|------- ------- ------- -------|------- ------- ------- -------|
D|--------7-------10------7------|--------7-------10------7------|
A|8------------------------------|8------------------------------|
E|-------------------------------|-------------------------------|



G|------- ------- ------- -------|------- ------- ------- -------|
D|--------5-------8-------5------|--------7-------10------7------|
A|6------------------------------|8------------------------------|
E|-------------------------------|-------------------------------|
  Five,   four,   three,  two, one


G|------- ------- ------- -------|------- ------- ------- -------|
D|-------------------------------|-------------------------------|
A|--------5-------8-------5------|--------5-------8-------5------|
E|6------------------------------|6------------------------------|



G|------- ------- ------- -------|------- ------- ------- -------|
D|-------------------------------|-------------------------------|
A|--------3-------6-------3------|--------5-------8-------5------|
E|4------------------------------|6------------------------------|
  Five,   four,   three,  two, one


G|------- ------- ------- -------|------- ------- ------- -------|
D|-------------------------------|-------------------------------|
A|8------------------------------|-------------------------------|
E|-------------------------------|-------------------------------|
          A - ha,     it  was the Man     -       freds!


G|------- ------- ------- -------|------- ------- ------- -------|
D|-------------------------------|-------------------------------|
A|--------7-------10------7------|--------5-------8-------5------|
E|8------------------------------|6------------------------------|



G|------- ------- ------- -------|------- ------- ------- -------|
D|--------7-------10------7------|-------------------------------|
A|8------------------------------|-------------------------------|
E|-------------------------------|8-------8-------8--------------|


Outro:
G|------- ------- ------- -------|------- ------- ------- -------|
D|-------------------------------|-------------------------------|
A|8-----------8-----------8------|6-----------6-----------6------|
E|-------------------------------|-------------------------------|
  Five,                           four,


G|------- ------- ------- -------|------- ------- ------- -------|
D|-------------------------------|-------------------------------|
A|3-----------3-----------3------|-------------------------------|
E|-------------------------------|4-----------4-----------4------|
  three,                          two,


G|------- ------- ------- -------|------- ------- ------- -------|
D|--------7-------10------7------|-------------------------------|
A|8------------------------------|--------6-------8--------------|
E|-------------------------------|-------------------------------|
  one.

Please e-mail me for any corrections, or write a comment.
            

comments powered by Disqus
↑ Back to top | Manfred Mann Bass for 5-4-3-2-1. Lyrics for acoustic guitar and electric guitar. Tablatures and chords are parodies/interpretations of the original songs. You may use it for private study, scholarship, research or language learning purposes only