» » »

Extraordinary Tabs (ver.1)

Artists:  A B C D E F G H I J K L M N O P Q R S T U V W X Y Z # 

Extraordinary Tabs (ver.1)

Mandy Moore
Rating:
5/5 (4 votes)

Hard to play? Try these video lessons and learn fast.
                -------------------------------------------------------------------------------
-------------------------------------------------------------------------------

Tuning: Standard

I've always been a big Mandy Moore fan and this is the first song off her new record
Wild Hope (which came out yesterday). Its really good and you should pick it up! The first
even has a guitar solo in it. Yes, a guitar solo in a Mandy Moore song, could it get any better?

Basically the whole song is in D Major. For the intro and verses, strum a D chord and
at the end of each measure they play G-G-G-G-D-Dsus2 then back to D. For the chorus, it

D   XX0232
G    320033
Dsus2 xx0230
A  x02220

          D                   D
I was a daydream, quite and unseen
                         (G-G-G-G-D-Dsus2)
I lived in stories but inside I kept a mystery
          D                   D
I was a starling, nobody's darling
                           G-G  G    G   D    Dsus2
Flying in perfect circles just for com - pa - ny

Chorus
  G          A
And now I'm ready
  G          A
And now I'm ready
  G          A
And now I'm ready
   G
to be.....Extraordinary

The solo's short, and not too hard, it took me a while to figure out, but I'm almost
this is it.

SOLO: D Major
e|---------------------------------------------------------------------------|
B|----8/10-----7-------------------------------------------------------------|
G|-----------------9p7--------------7------------------7-----7---------------|
D|-----------------------9p7-----------------------7h9-----------------------|
A|-----------------------------10--------9--9--------------------------------|
E|---------------------------------------------------------------------------|

e|---------------------------------------------------12---14-----------------|
B|---------10-----------12p10-----10--12--------12---------------------------|
G|----9/11----------11---------11--------------------------------------------|
D|---------------------------------------------------------------------------|
A|---------------------------------------------------------------------------|
E|---------------------------------------------------------------------------|

e|--14h15--15--15---14----11/12----10-------7--------------------------------|
B|--15-----15--15---15----11/12----10-------8--------------------------------|
G|-----------------------------------------(7)-------------------------------|
D|-----------------------------------------(9)-------------------------------|
A|---------------------------------------------------------------------------|
E|---------------------------------------------------------------------------|

Then the "bridge" after the solo is the same chords as the chorus. Then the chorus a
times and you're done.

Well thats how I play it. One more thing; on the verses I'm pretty sure he slides up to
E chord at some point(move the D chord up two frets) but not exactly sure where or when.
you can mess around with that if you want, i think it sounds fine either way.

Again this is Extraordinary off of Mandy Moore's Cd Wild Hope. Shes kind of a guilty
of mine, lol. Her new cd is kinda stepping away from the poppy stuff and going towards more
a folky/hippie vibe which is cool. They are even comparing her to Sarah McLaughlin and 
amazing Joni Mitchell. Enjoy.

         The SoulTrain

| /  slide up
| \  slide down
| h  hammer-on
| p  pull-off
| ~  vibrato
| +  harmonic
| x  Mute note
===============================================================================
            
Hard to play? Try these video lessons and learn fast. | Correct




comments powered by Disqus
↑ Back to top | Tablatures and chords are parodies/interpretations of the original songs. You may use it for private study, scholarship, research or language learning purposes only