» » »

Cry Bass tabs (ver.1)

Artists:  A B C D E F G H I J K L M N O P Q R S T U V W X Y Z # 

Cry Bass tabs (ver.1)

Mandy Moore
Rating:
0/5 (0 votes)

Hard to play? Try these video lessons and learn fast.
                Intro:

G |---------------------------|
D |---------------------------|
A |-3-------------------------|
E |---3-5-1-------------------|2x

Verse: 1 and 2

G |---------------------------|
D |---------------------------|
A |-3-------------------------|
E |---3-5-1-------------------|

Refrain:

G |------------------------------------|
D |---------------3/5-3-2-0-0h2--------|
A |-3----------------------------------|
E |---3-5-1----------------------------|

Chorus:

G |------------------------------------|
D |------------------------------------|
A |-3----------------------------------|
E |---3-5-1----------------------------|

thats all...................
pls add rate to this........
-LeNz-......................
            
Hard to play? Try these video lessons and learn fast. | Correct




comments powered by Disqus
↑ Back to top | Tablatures and chords are parodies/interpretations of the original songs. You may use it for private study, scholarship, research or language learning purposes only