» » »

Mando Diao, Long Before Rock N Roll Tabs (ver.1)

Artists:  A B C D E F G H I J K L M N O P Q R S T U V W X Y Z # 

Long Before Rock N Roll Tabs (ver.1)

Mando Diao Tabs
 Rating:
4/5 (4 votes)
Long Before Rock N Roll lessons Tabs too difficult? Try these video lessons and learn fast
                Long Before Rock ’n’ Roll - Mando Diao

Intro: Em Am G D

e---------------------------------------------------|       |
B---------------------------------------------------|       |
G--9^-9^-9^-9^-9^-9h11h9--9^-9^-9^-9^-9^-9^-12^-11^-|       |
D----------9^----9^--------------9^-----------------|(2x)   |
A---------------------------------------------------|       |
E---------------------------------------------------|       |
e-----------------------------------------|                 |  (2x)
B-----------------------------------------|                 |
G--7^-7^-7^-7^-7^-7h9h7-7^-7^-7^-7^-7^-7-9|                 |
D---------9^----9^-------------9^----9^---| (2x)            |
A-----------------------------------------|                 |
E-----------------------------------------|                 |

Vers:
Em                   Am                            G
She said I like just lying on the bed beneath the ceiling with her head
        D
upon my pillow
        D7
There’s nothing else I'd rather do
Em                    Am                            G
And I said I'd rather do it on the couch or in the kitchen where about
            D               D7
You seem so down child like nothing could destroy your world

Refräng:
Em
But I never ever wanted to
Am
You wold never ever let me to
G                                       D
I would but you must wait until it gets dark
Em
So what is it that you want me to
Am
I can make it if it's good for you
G                       D
So play me some from 1954
B
Before rock ‘n’ roll Yeah, before rock ’n’ roll
                    Em Am G D
Before rock ‘n’ roll

Verse 2:
Well later she came with flowers in her arms said we can do it in the car my brother 
it, the driver seat is made for us
I said I’d rather grab a bite to eat there is a diner down the street lets take it easy
And join this lovely harmony

Em
But I never ever wanted to
Am
You wold never ever let me to
G                                       D
I would but you must wait until it gets dark
Em
So what is it that you want me to
Am
I can make it if it's good for you
G                       D
So play me some from 1954
B
Before rock ‘n’ roll Yeah, before rock ’n’ roll
Before rock ‘n’ roooooooooooooooooooll, yeah yeah yeah

Outro: Em Am G D x4
(Na na na na na)
Before rock ‘n’ roll
End on Em

During the verses Gustaf plays this while Björn is singing:

|-0-------------------------------------------------|
|-0-------------------------------------------------|
|-0--5-4-54-5-2-4-5--4-2-42-0-2-4--7---777-55-4-2-4-|
|-2----------------------------------7--------------|
|-2-------------------------------------------------|
|-0-------------------------------------------------|

And while he himself is singing:

Em Am G7 D and then:
|--------------|
|-333-11-0--0--|
|----------2---|
|--------------|
|--------------|
|--------------|
            
Submit corrections

comments powered by Disqus
↑ Back to top | Mando Diao Tabs for Long Before Rock N Roll. Lyrics for acoustic guitar and electric guitar. Tablatures and chords are parodies/interpretations of the original songs. You may use it for private study, scholarship, research or language learning purposes only