» » »

Killer Kaczynski Tabs (ver.1)

Artists:  A B C D E F G H I J K L M N O P Q R S T U V W X Y Z # 

Killer Kaczynski Tabs (ver.1)

Mando Diao
Rating:
0/5 (0 votes)

Hard to play? Try these video lessons and learn fast.
                Mando Diao
Ode to Ochrasy

it's just the chords of the rhythm guitar, not the fill-ins by the 
lead guitar

Standard Tunong: EADGBE

Intro 4x
E-------------------------------------|
B-------------------------------------|
G-------------------------------------|
D-------------------------------------|
A-------------------------------------|
E--3-3-3-3-3-3-2-2-2-2-2-2------------|

Verse 2x
E--2-x-2-2-2-2--7-x-5-5-5-5--5 x 5 5 5 5--3-x-3-3-3-3-|
B--3-x-3-3-3-3--7-x-7-7-7-7--5 x 5 5 5 5--3-x-3-3-3-3-|
G--4-x-4-4-4-4--7-x-7-7-7-7--6-x-6-6-6-6--4-x-4-4-4-4-|
D--4---4-4-4-4--7---7-7-7-7--7-x-7-7-7-7--5---5-5-5-5-|
A--2---2-2-2-2--5---5-5-5-5--7---7-7-7-7--5---5-5-5-5-|
E----------------------------5---5-5-5-5--3---3-3-3-3-| 

Chorus 3x
E--2 x----------2-x-2-2-2-2----|
B--3-x----------3-x-3-3-3-3----|
G--4-x-1-1-1-1--4-x-2-2-2-2----|
D--4-x-2-2-2-2--4-x------------|
A--2---2-2-2-2--2--------------|
E------------------------------|

at the end of the chorus 1x
E-2-2-2-2-|
B-2-2-2-2-|
G-3-3-3-3-|
D-4-4-4-4-|
A-4-4-4-4-|
E-2-2-2-2-|

during the bridge with the "now your standing on the streets..."
E-2----2----2-|
B-3----3----2-|
G-4----4----3-|
D-4----4----4-|
A-2----2----4-|
E-----------2-|

begin on Bm, then wait, then in the middle it's another Bm, and the bridge ends on F#

this is what is played and the number of times it's played
now here's the order of the song:

Intro
Verse
Chorus
Verse
Chorus
Bridge
Verse
Chorus
Verse and Chorus during Solo
Verse
Chorus
Bridge
Verse
Chorus
Verse and Chorus during second Solo
            
Hard to play? Try these video lessons and learn fast. | Correct




comments powered by Disqus
↑ Back to top | Tablatures and chords are parodies/interpretations of the original songs. You may use it for private study, scholarship, research or language learning purposes only