» » »

Mando Diao, Josephine Tabs (ver.1)

Artists:  A B C D E F G H I J K L M N O P Q R S T U V W X Y Z # 

Josephine Tabs (ver.1)

Mando Diao Tabs
 Rating:
4/5 (4 votes)
Josephine lessons Tabs too difficult? Try these video lessons and learn fast
                
Comment:

Hey folks!
I guess my tab gets pretty close to the original one.
Pretty easy picking, but it's lots of fun playing it!
Have a good time with it!
cya




Intro:
|-----7---------------7----------------------6--------------------------|
|-----7--------11-----7------------------------7------------------------|
|-----8--------11-----8---------9--------8-------8---------9---------11-|
|------------11---------------9---9--------8-------------9---------11---|
|--------7/9------0-------7---------6--------------6-6/7-----7-7/9------|
|-7-----7-----------7---------------------------------------------------|

|---7-----------------7----------------------6-----------------------7-|
|---7----------11-----7------------------------7---------------------7-|
|---8----------11-----8---------9--------8-------8---------9---------8-|
|------------11---------------9---9--------8-------------9-------------|
|------7/9--------0-------7---------6--------------6-6/7-----7---------|
|-7--x--------------7-------------------------------------------7------|

  hmmmmm....hmmmmm....hmmmmm....hmmmmm....hmmmmm....hmmmmm....hmmmmm

Stanza
|---7-----------------7----------------------6--------------------------|
|---7----------11-----7------------------------7------------------------|
|---8----------11-----8---------9--------8-------8---------9---------11-|
|------------11---------------9---9--------8-------------9---------11---|
|------7/9--------0-------7---------6--------------6-6/7-----7-7/9------|
|-7--x--------------7---------------------------------------------------|

    Josephine is not your kind,     she believes in magic and might
   (Josephine is not your kind,     she believes in ravers with dimes)

|---7-----------------7----------------------6-----------------------7-|
|---7----------11-----7------------------------7---------------------7-|
|---8----------11-----8---------9--------8-------8---------9---------8-|
|------------11---------------9---9--------8-------------9-------------|
|------7/9--------0-------7---------6--------------6-6/7-----7---------|
|-7--x--------------7-------------------------------------------7------|

    You try hard to make her fine,  but she sleeps with acid
   (You try hard to see her eyes,   but they're made for others)

Chorus
|-------4-----------------------4-----------4-------------0---------------
|---------4---------4-------------4-----------4-------0-----0-------------
|---4-------4---4-----4-----4-------4---4-------4---1---1-----1-------3---
|-------------------------------------------------------------------------
|-------------------------------------------------------------------------
|-4-----------3-----------2-----------1-----------0-------------0-0/2-----

    Do her parents know it's for real, When she asks them to be high 
   (She runs to the club with some cash, And spends them all on pleasure)

 -2------------------7----------------------7------|
 -----2----------7-------7-----10-10---10-----10---|
 ----------3-------8-------8---8--8----8---------8-|
 ------------------------------7--7----7-----------|
 ------------------------------9--9----9-----------|
 ------------2-7-----------------------------------|

   I don't know But they will sure beware of it 
  (In her head there's some old drug taking care of her)

|-------4-----------------------4-----------4-------------0---------------
|---------4---------4-------------4-----------4-------0-----0-------------
|---4-------4---4-----4-----4-------4---4-------4---1---1-----1-------3---
|-------------------------------------------------------------------------
|-------------------------------------------------------------------------
|-4-----------3-----------2-----------1-----------0-------------0-0/2-----

 She smokes clouds every single night Should be glad that she's alive
  (Gets the very best of a man And pays him with a laugh)
 
-2----------------7-----------------7------|
 -----2--------------7-----------------7---|
 ----------3-----------------------------8-|
 ------------------------------------------|
 ----------------------6-7-9---6-9---------|
 ------------2-7---------------------------|

  In her head she sees butterflies with pistols
 (Don't you see she's not a mystery)

Outro
|---7-----------------7----------------------6--------------------------|
|---7----------11-----7------------------------7------------------------|
|---8----------11-----8---------9--------8-------8---------9---------11-|
|------------11---------------9---9--------8-------------9---------11---|
|------7/9--------0-------7---------6--------------6-6/7-----7-7/9------|
|-7--x--------------7---------------------------------------------------|

  hmmmmm....hmmmmm....hmmmmm....hmmmmm....hmmmmm....hmmmmm....hmmmmm

|---7-----------------7----------------------6------------------7-|
|---7----------11-----7------------------------7----------------7-|
|---8----------11-----8---------9--------8-------8---------9----8-|
|------------11---------------9---9--------8-------------9--------|
|------7/9--------0-------7---------6--------------6-6/7-----7----|
|-7--x--------------7-------------------------------------------7-|

    hmmmmm....hmmmmm....hmmmmm....hmmmmm....hmmmmm....hmmmmm
            
Submit corrections

comments powered by Disqus
↑ Back to top | Mando Diao Tabs for Josephine. Lyrics for acoustic guitar and electric guitar. Tablatures and chords are parodies/interpretations of the original songs. You may use it for private study, scholarship, research or language learning purposes only