» » »

If I Dont Live Today Chords (ver.2)

Artists:  A B C D E F G H I J K L M N O P Q R S T U V W X Y Z # 

If I Dont Live Today Chords (ver.2)

Mando Diao
Rating:
0/5 (0 votes)

Hard to play? Try these video lessons and learn fast.
                Band:   Mando Diao

standard tuning
key: E major

Intro:

    E    G#m   C#m    A

e|--0-----4-----4-----5--|
h|--0-----4-----5-----5--|
g|--1-----4-----6-----6--|
D|--2-----6-----6-----7--|
A|--2-----6-----4-----7--|
E|--0-----4-----4-----5--|



Verse:

   G#m   F#m

e|--4-----2---|
h|--4-----2---|
g|--4-----2---|
D|--6-----4---|
A|--6-----4---|
E|--4-----2---|


Chorus (chords like intro):

           E       G#m      C#m             A         E      G#m   C#m   A

If I don't live today...   ...,then I might be here tomorrow


           E       G#m      C#m             A         E      G#m   C#m   A

If I don't live today...   ...,then I might be here tomorrow
            
Hard to play? Try these video lessons and learn fast. | Correct




comments powered by Disqus
↑ Back to top | Tablatures and chords are parodies/interpretations of the original songs. You may use it for private study, scholarship, research or language learning purposes only