» » »

Mando Diao, If I Dont Live Today Tabs (ver.2)

Artists:  A B C D E F G H I J K L M N O P Q R S T U V W X Y Z # 

If I Dont Live Today Tabs (ver.2)

Mando Diao Tabs
Rating:
0/5 (0 votes)
Hard to play? Try these video lessons and learn fast.
                If I don’t live today – Mando Diao


I think most of the part is right and it actually sounds really good to me.

Intro:

    E    G#m   C#m    A

e|--0-----4-----4-----5--|
b|--0-----4-----5-----5--|
g|--1-----4-----6-----6--|      first play this then play the intro-riff
D|--2-----6-----6-----7--|      or you can use a second guitar
A|--2-----6-----4-----7--|
E|--0-----4-----4-----5--|

Intro Riff

e|------------------------------------------------------------------------|
b|------------------------------------------------------------------------|
g|------------------------------------------------------------------------|
D|------------2-4-2--------------------------------------2----------------|
A|--------2-4-----------------2-4-4-2-0-2------------------4-4-2-0-2------|
E|--0-2-4-----------0-0-2-4-4-------------4-2--0-0-2-4-4-------------4-2--|


G#m                     F#m
Take my hand of funeral flowers in white 
            G#m
Why did you hurt me so? 
                  F#m
You said that you never stood out 
           G#m
So go kiss Ann on the cheek 

She’s never weak 
                      F#m
She likes the way you betrayed me 
                 E                  G#m                      A       E
But don't forget If I don't live today, then I might be here tomorrow 
E                  G#m                      A       E
If I don't live today, then I might be here tomorrow 
E          G#m/A
Be here tomorrow			



G#m                        F
Watch me shine, as all the lights closes down 
            G
It’s just a talent of mine 
               F
You know I die whenever I want 
            G
So go chase fortune when I'm gone 
                        F
I'm guilty of reading my own past 
                E                  G#m                      A       E
So don't forget If I don't live today, then I might be here tomorrow 
E                  G#m                      A       E
If I don't live today, then I might be here tomorrow
            

comments powered by Disqus
↑ Back to top | Mando Diao Tabs for If I Dont Live Today. Lyrics for acoustic guitar and electric guitar. Tablatures and chords are parodies/interpretations of the original songs. You may use it for private study, scholarship, research or language learning purposes only