» » »

Good Morning, Herr Horst Bass tabs (ver.1)

Artists:  A B C D E F G H I J K L M N O P Q R S T U V W X Y Z # 

Good Morning, Herr Horst Bass tabs (ver.1)

Mando Diao
Rating:
0/5 (0 votes)

Tabs too difficult? Try these video lessons and learn fast.
                Just noticed there were no tabs for the bass line so I decided to post my version.
Probably not 100% correct but you decide.

Tuning: Standard EADG

Riff 1 0:07-0:20

-----------------------------------|
-----------------------------------|
-[5-0]-X8--7-8--8-7-3--0-3-5-0-5-0-|
-----------------------------------|

Riff 2 0:20-0:28

------------------------------------|
------------------------------------|
-[5-0]-X4--5-7-8--8---3-0-3-5-0-5-0-|
--------------------8---------------|

Buildup 0:28-0:32

-----------|
-----------|
-6-7-8-9---|
-----------|

Riff 3 0:32-0:36

--------------------|
-----------------7--|
-10----10------7--7-|
----10----10-9------|

Riff 3 0:36-0:44

-------------------------------|
-------------------------------|
-[5-0]-X4- 7-8--8---3-0-3-5~~~-|
------------------8------------|

Chorus 0:44-1:01

--------------------------------------|
--------------------------------------|
-5-[0-3h5]X3--0-3-8--8-7-3--[3-0h5]X3-|  X2
--------------------------------------|

Riff 4 1:01-1:18

---------------------------------------|
---------------------------------------|
-[5-0]-X4--7-8--8-7-3--0-3-5-0-5-8-3-5-|
---------------------------------------|

Buildup 1:18-1:22

-----------|
-----------|
-6-7-8-9---|
-----------|

Riff 3 1:22-1:26

--------------------|
-----------------7--|
-10----10------7--7-|
----10----10-9------|

Riff 5 1:26-1:38

----------------------------------------|
----------------------------------------|
-[5-0]-X4- 7-8~--8-3~-0-5~~~-8~--3~--5~-|
----------------------------------------|

Chorus 1:38-END

--------------------------------------|
--------------------------------------|
-5-[0-3h5]X3--0-3-8--8-7-3--[3-0h5]X3-|  X2
--------------------------------------|


There are some little additions he does later in the song but thats basically it

Please Rate & Enjoy :)
TooTech
            
Tabs too difficult? Try these video lessons and learn fast.




comments powered by Disqus
↑ Back to top | Tablatures and chords are parodies/interpretations of the original songs. You may use it for private study, scholarship, research or language learning purposes only