>
 >
Good Morning, Herr Horst

Good Morning, Herr Horst Guitar Tabs

Mando Diao - Good Morning, Herr Horst chords, tabs, tablatures, lyrics

Guitar lessons | Add/correct | Request | Top 50 tabs Artists:  A B C D E F G H I J K L M N O P Q R S T U V W X Y Z 0-9

Good Morning, Herr Horst Guitar Tabs – Mando Diao

CD, Sheet music, Poster

Do you like Good Morning, Herr Horst? Share with your friends now
Bass TabsChordsTabs
*****************************************
**Mando Diao - Good Morning, Herr Horst**
*****************************************


| /  slide up
| \  slide down
| h  hammer-on
| p  pull-off
| b  bend
Intro:
e|-8h10-8-----8--------8------------------------------------|
B|-10---10-10-10----10-10-10-8-8h10----10--8----------------|
G|---------10--------------------------------10-9--9h10-9-7-|
D|----------------------------------------------------------|
A|----------------------------------------------------------|
E|----------------------------------------------------------|

Verse 1: 
   Dm                               F       C        Dm
e|-------------------------------------------------------------------|
B|---6-------6---6---6-------6-------------------------6-------6-----|
G|-------7---------------7-------7----5--------------------7-------7-|
D|-7---7---7---7---7---7---7---7---/7---5----------------7---7---7---|
A|----------------------------------------8-7--7h8-7-5---------------|
E|-------------------------------------------------------------------|
                                         F             C             Dm
e|---------------------------------------8--8-8-8-8-8--9--9-9-9-9-9--9h10--13|
B|---6---6--6-6-6--6--9-9-9-9-9-10----10-------------------------------------|
G|---------------------------------------------------------------------------|
D|-7---7---------------------------------------------------------------------|
A|---------------------------------------------------------------------------|
E|---------------------------------------------------------------------------|
   D#5     E5      F5          F#5       Gm                    A
e|---------------------------------------10--10--10-10--10-10--5--5-5-5-5-5--|
B|---------------------------------------11--11--11-11--11-11--5--5-5-5-5-5--|
G|-----8-------9-------10-1010-----11----12--12--12-12--12-12--6--6-6-6-6-6--|
D|---8---8---9---9---10----------11------12--12--12-12--12-12--7--7-7-7-7-7--|
A|/6------/7------/8----------/9---------------------------------------------|
E|---------------------------------------------------------------------------|
   Dm                               F        C       Dm 
e|-8h10-8----8--------8------------------------------10|
B|-10---10-8-10----10-10-10-8-10----10--8------------10|
G|---------8------------------------------10-9--10-9-7-|
D|-----------------------------------------------------|
A|-----------------------------------------------------|
E|-----------------------------------------------------|

Chorus:
Dm////////F//C//Dm//// x2
Guitar 1
   Dm                                F       C     Dm 
e|----------------------------------------------------------------|
B|---6-------6-------6-------6-----------------------6-------6----|
G|-------7-------7-------7-------7-------5---------------7-------7|
D|-7---7---7---7---7---7---7---7-----5h7---------5-----7---7---7--|
A|-------------------------------------------5h7---5--------------|
E|----------------------------------------------------------------|
Guitar 2
   Dm                              F       C        Dm
e|----------------------------------------------------------------|
B|----------------------------------------------------------------|
G|----------------------------------------------------------------|
D|---------------------------------3------------------------------|
A|-----------------------------3-5---------3--------5------5------|
E|----------------------------------------------------------------|

Guitar 1
   Dm                              F       C       Dm    
e|----------------------------------------------------------------|
B|---6-------6-------6-------6-----------------------6-------6----|
G|-------7-------7-------7-------7-------5---------------7-------7|
D|-7---7---7---7---7---7---7---7---3-5h7---------5-----7---7---7--|
A|-----------------------------------------3-5h7---5--------------|
E|----------------------------------------------------------------|
Guitar 2 (You'll hear how to play the notes)
e|------------------------------------------------------------------------------------------------|
B|------------------------------------------------------------------------------------------------|
G|------------------------------------------------------------------10-10--12-10-12b-12b--10------|
D|-------------------5--/7--7-7-7-7-7-7-7/10-10-10-10-10-10-10-10/12-----10------------------12-12|
A|-5-----8-5-8-----8---8--------------------------------------------------------------------------|
E|------------------------------------------------------------------------------------------------|

   D#5     E5      F5          F#5       Gm                    A
e|---------------------------------------10--10--10-10--10-10--5--5-5-5-5-5--|
B|---------------------------------------11--11--11-11--11-11--5--5-5-5-5-5--|
G|-----8-------9-------10-1010-----11----12--12--12-12--12-12--6--6-6-6-6-6--|
D|---8---8---9---9---10----------11------12--12--12-12--12-12--7--7-7-7-7-7--|
A|/6------/7------/8----------/9---------------------------------------------|
E|---------------------------------------------------------------------------|
   Dm                               F        C       Dm                    C
e|-8h10-8----8-----------------------------------------------------------------------|Dm
B|-10---10-8-10----10-8h10-8--8b----10--8-----10-8------------8b-8b8b-8b8b-8---8-8b10|
G|---------8----------------10------------10-9-----9--7-/7-10------------------------|
D|-----------------------------------------------------------------------------------|
A|-----------------------------------------------------------------------------------|
E|-----------------------------------------------------------------------------------|

Chorus:
Dm////////F//C//Dm//// x2


Over and out // ALAX





Comments


Popular Mando Diao tabs & chords
Dance With Somebody Bass Tabs
God Knows Bass Tabs
Chet Baker Chords
God Knows 1 Chords
Long Before Rock N Roll Chords
Motown Blood Chords
Song For Aberdeen Chords
Dalarna Intro Tabs
Dance With Somebody Intro 1 Tabs
The Quarry Ukulele


Song lyrics



↑ Back to top | Tablatures and chords are parodies/interpretations of the original songs. You may use it for private study, scholarship, research or language learning purposes only
© 2014 AZChords.com Contact us | Privacy policy | DMCA | Add/correct tabs | Request tabs | Top 50 tabs