» » »

God Knows Bass tabs (ver.1)

Artists:  A B C D E F G H I J K L M N O P Q R S T U V W X Y Z # 

God Knows Bass tabs (ver.1)

Mando Diao
Rating:
5/5 (2 votes)

Hard to play? Try these video lessons and learn fast.
                Intro
G|--------------------------------|
D|---------0--0-2222-5555555555-0-|
A|--0-2--2------------------------|
E|--------------------------------|

verse 1  2x
G|-------------------------------------------------------|
D|--------------000000-0--/0-222222-55-5555-0------------|
A|-222222-2-0/2----------2--------------------222222-0-0-|
E|----------------------------------------------------2--|
verse 2
G|-----------------------------------------------------------|
D|--------------000000-0--/0-2222-5555-2-0-2-0-55555555555-0-|
A|-222222-2-0/2----------2-----------------------------------|
E|-----------------------------------------------------------|

Chorus1
G|--------------2-4444-2-000000-----|
D|--0000/2-4444-----------------2-0-|
A|----------------------------------|
E|----------------------------------|

G|--------------2-4444-2/3/4444--432-432---|
D|--0000/2-4444----------------------------|
A|-----------------------------------------|
E|-----------------------------------------|

G|--------------2-4444-2-000000-----|
D|--0000/2-4444-----------------2-0-|
A|----------------------------------|
E|----------------------------------|

G|------------------------------------|
D|--0000/2-4444--x2222-5555-2222-5555-|
A|------------------------------------|
E|------------------------------------|

1:17
Verse 1
Verse 2

Chorus 2 (gleich wie Chorus 1 aber am Ende):
G|----------------------------------------------|
D|--0000/2-4444-x-2222-5555-2222-5555-2222-5555-|
A|----------------------------------------------|
E|----------------------------------------------|

verse 1
verse 2

verse 3 2x
G|--------------------------------------------------|
D|--------------000000-0--/0-2222-5555-2222-2222222-|
A|-222222-2-0/2----------2--------------------------|
E|--------------------------------------------------|

Chorus 2

Outro
G|-----------------------------------|
D|----------00000000-2222-5555-0-----|
A|-22222222----------------------2---|
E|-----------------------------------|

Tabs written by Arne Leonhardt
            
Hard to play? Try these video lessons and learn fast. | Correct




comments powered by Disqus
↑ Back to top | Tablatures and chords are parodies/interpretations of the original songs. You may use it for private study, scholarship, research or language learning purposes only