» » »

Mando Diao, Dalarna Tabs (ver.1)

Artists:  A B C D E F G H I J K L M N O P Q R S T U V W X Y Z # 

Dalarna Tabs (ver.1)

Mando Diao Tabs
 Rating:
4/5 (7 votes)
Dalarna lessons Tabs too difficult? Try these video lessons and learn fast
                (Intro)
Part: Intro


e|----------------------------------------------------------------------|
b|--12~----14--15----11~----10~----12--13----10~----12-10--10-----------|
g|--13~--------------12~----11~--------------11~-----------------9-9~~--|
D|--14~--------------13~----12~--------------12~------------------------|
A|----------------------------------------------------------------------|
E|----------------------------------------------------------------------|


e|----------------------------------------------------------------------|
b|----------------------------8~----7--5---5~---4~----3----5----3---7---|
g|--9~----7--5----5~---4~-----------------------------------------------|
D|----------------------------------------------------------------------|
A|----------------------------------------------------------------------|
E|----------------------------------------------------------------------|


e|----------------------------------------------------------------------|
b|--7---5---3---5~------------------------------------------------------|
g|-------------------4h6-----9~-------9-----7~--------------------------|
D|--------------------------------9----9--------9---7--5---7----0h4~----|
A|----------------------------------------------------------------------|
E|----------------------------------------------------------------------|


e|-----------------------------------------------------9~------------9~-|
b|--12----14--15----11----10----12---10---9----9~----------12---10------|
g|--13--------------12----11--------------------------------------------|
D|--14--------------13----12--------------------------------------------|
A|----------------------------------------------------------------------|
E|----------------------------------------------------------------------|


e|--9-------------------------------------------------------------------|
b|------12--10---12~----14--9~----12--10--9---10~---9--7------------14~-|
g|--------------------------------------------------------10----12------|
D|----------------------------------------------------------------------|
A|----------------------------------------------------------------------|
E|----------------------------------------------------------------------|


e|--------------------------------------------------12----10-9~---------|
b|--12---10--9----7-----------14----12--10~----12-----------------------|
g|-------------------10h12----------------------------------------------|
D|----------------------------------------------------------------------|
A|----------------------------------------------------------------------|
E|----------------------------------------------------------------------|


e|--9h10p9----7----5----4--2~------9h10p9----7----5----4--2~------------|
b|----------------------------------------------------------------------|
g|----------------------------------------------------------------------|
D|----------------------------------------------------------------------|
A|----------------------------------------------------------------------|
E|----------------------------------------------------------------------|


e|--9--10----9-7----5-7---5---4---2-------------------------------------|
b|------------------------------------/5-5-5-5-5--5/9-9-9--9/12-12-12~--|
g|----------------------------------------------------------------------|
D|----------------------------------------------------------------------|
A|----------------------------------------------------------------------|
E|----------------------------------------------------------------------|


the rest of the song is coming soon... i can't hear it ^^
            
Submit corrections

comments powered by Disqus
↑ Back to top | Mando Diao Tabs for Dalarna. Lyrics for acoustic guitar and electric guitar. Tablatures and chords are parodies/interpretations of the original songs. You may use it for private study, scholarship, research or language learning purposes only