>
 >
Chi Ga

Chi Ga Guitar Tabs

Mando Diao - Chi Ga chords, tabs, tablatures, lyrics

Guitar lessons | Add/correct | Request | Top 50 tabs Artists:  A B C D E F G H I J K L M N O P Q R S T U V W X Y Z 0-9

Chi Ga Guitar Tabs – Mando Diao

CD, Sheet music, Poster

Do you like Chi Ga? Share with your friends now
ChordsTabsUkulele
Just reckoned you deserved something better than the former, rather poor, attempt.
------------------------------------------------------------------------------
Intro:
Em - A - Em - A - C7 - C7 - B7 - B7
(Trumpet riff transcribed for guitar) 
e|---------------14-15-14---------------|
B|-5/17-------17----------17------------|
G|---------16----------------16-17---16-|
D|--------------------------------------|
A|--------------------------------------|
E|--------------------------------------|

   Em      Bm       Am  
 She can smell her next day but it
 C7           B7         C7*      B7  
 ain't gonna work if I cross her mind
      Em     Bm        Am        
 The latest news this weekend man got 
  C7         B7              C7        B7   
 raped, she replied, I'll go out for bread


   Em    A          Em               A
 Chi Ga -only she knows how to step forward and 
   C7                       B7
 when it's gonna come to an end
   Em    A          Em            A  
 Chi Ga -only fast women can describe her 
    C7                            B7
 attempts and when it comes to an end
           Em    A    Em    A    Em    A    B7    B7
 Then she got...


   Em      Bm       Am           
 Chi Ga's building towers to 
     C7             B7          C7         B7   
 protect her from those who is paying her bills
  Em    Bm       Am              
 Never works on Wednesdays finds it 
  C7        B7         C7         B7
 hard to believe her drinking is well


   Em    A          Em               A
 Chi Ga -only she knows how to step forward and 
   C7                       B7
 when it's gonna come to an end
   Em    A          Em            A  
 Chi Ga -only fast women can describe her 
    C7                            B7
 attempts and when it comes to an end
           Em    A    Em    A    C7    C7    B7    B7
 Then she got...
(Once again transcribed for guitar)
e|------------------------12--15--19-|
B|-17\12--10----------12-------------|
G|-----------12----------------------|
D|-----------------------------------|
A|-----------------------------------|
E|-----------------------------------| 

   Em    A          Em               A
 Chi Ga -only she knows how to step forward and 
   C7                       B7
 when it's gonna come to an end
   Em    A          Em            A  
 Chi Ga -only fast women can describe her 
    C7                            B7
 attempts and when it comes to an end
           Em
 Then Chi Ga 
           A
 Then Chi Ga
           Em
 Then Chi Ga
           A
 Then Chi Ga
           C7 C7 B7 B7 Em
 Then Chi Ga

------------------------------------------------------------------------------
(Chorus trumpet fills)
e|-17-17-------15-15-19-------17-17-17-15-15-14-14------------|
B|-------------------------------------------------17-17------|
G|---------------------------------------------------------16-|
D|------------------------------------------------------------|
A|------------------------------------------------------------|
E|------------------------------------------------------------

e|-17-17-----------------------15-19...-|
B|--------------------------17----------|
G|------------------(16)-16-------------|
D|--------------(17)--------------------|
A|--------------------------------------|
E|--------------------------------------|

------------------------------------------------------------------------------
* Very hard to figure out these chords. All you can hear is this bass line:
G|-------------------------------------|
D|-10-10-9-9-7-7-----------------------|
A|---------------10-10-9-9-7-7-6-6-----|
E|---------------------------------7-7-| 





Comments


Popular Mando Diao tabs & chords
Josephine Bass Tabs
Paralyzed Chords
Your Lovers Nerve Chords
Dance With Somebody 2 Tabs
Crystal Ukulele
I Ungdomen Ukulele
Jeanette Ukulele
Ochrasy Ukulele
Ringing Bells Ukulele
This Is The Modern Ukulele


Song lyrics



↑ Back to top | Tablatures and chords are parodies/interpretations of the original songs. You may use it for private study, scholarship, research or language learning purposes only
© 2014 AZChords.com Contact us | Privacy policy | DMCA | Add/correct tabs | Request tabs | Top 50 tabs