>
 >
Bring `Em In

Bring `Em In Guitar Tabs

Mando Diao - Bring `Em In chords, tabs, tablatures, lyrics

Guitar lessons | Add/correct | Request | Top 50 tabs Artists:  A B C D E F G H I J K L M N O P Q R S T U V W X Y Z 0-9

Bring `Em In Guitar Tabs – Mando Diao

CD, Sheet music, Poster

Do you like Bring `Em In? Share with your friends now
Tabs
*Riff 1 (please check footnotes before starting)
e|------------------------------------------------------|
B|------------------------------------------------------|
G|-----12b----12b----12b----12b----12b----12b----12b----|
D|-/14-----14-----14-----14-----14-----14-----14-----14-|
A|------------------------------------------------------|
E|------------------------------------------------------|
*Riff 2
e|----------------------------------------------------------|
B|-------------------------------12----12--12--12--12-------|
G|-----12b----12b----12b----12b--14b--b16-b16-b16-b16b14-12-|
D|-/14-----14-----14-----14---------------------------------|
A|----------------------------------------------------------|
E|----------------------------------------------------------|

Intro:
e|---------------|
B|---------------|
G|---------------|x1
D|---------------|
A|2-2-2-4-2-2-2-4|
E|0-0-0-0-0-0-0-0|

then:

e|---------------|
B|---------------|
G|---------------|Until verse (3x before the lead guitar enters)
D|---------------|
A|2-2-2-4-2-5-2-4|
E|0-0-0-0-0-0-0-0|

The lead guitar plays as follows:

*Riff 1

*Riff 2

*Riff 1 x3

*Riff 2

Verse:
G                                                        E7
 I've gotta climb this mountain yeah I'll deal with you later
         G                                                    E7
 If you burst into laugh then I will ch-ch-ch-choke you with cough
       G                                                       E7
 I am better of dead, I'm rolling high and I'll be gone for tomorrow

Chorus:
A7                                       C7
 So copying styles if you're a one of a kind
     A7        E7                              x2 (Finish with E the 2nd time)
 Oh yeah! All right!

Continue playing the E chord in the following interlude.

e|-----------------------------------------------------------|
B|--------------------12--12--12--12--12--12--12--12--12-----|
G|----12b-12b-12b-12b-14b-14b-14b-14b-14b-14b-14b-14b-14b-12-|
D|-14--------------------------------------------------------|
A|-----------------------------------------------------------|
E|-----------------------------------------------------------|

Riff 1

Riff 2

Verse:
G                                                    E7
 Tough looking star, painted in black, smoothed in white cream
  G                                             E7
 Sing lazy songs, lyrics haven't been the same without, yeah
               G                                                 E7
 And when the lunatics are coming in the late afternoon, I will comfort me

Chorus:
A7                                      C7
 With saying that I'm just a one of a kind
     A7        E7
 Oh yeah! All right!

Solo:
  E              G              A7
e|---------------------------------------------------|
B|-----------------12-12-----------------------------|
G|-----------------12-12h14p12-----------------12----|
D|-----12-14-----------------------------12-14----14-|
A|-/14-----------------------------12h14-------------|
E|---------------------------------------------------|
  E                      G                   A7                             E
e|-----------------------------------------------------------------------------|
B|--12---------12-----12---12---------12-----12--12--12--12--12--12------12-12-|
G|--14b(16)b14-12--12-12---14b(16)b14-12--12-12--14b-14b-14b-14b-14b-b14-12-14b|
D|-----------------14---------------------14-----------------------------------|
A|-----------------------------------------------------------------------------|
E|-----------------------------------------------------------------------------|
               E                          G
 And when the lunatics are coming in the late afternoon
          A7                              E
 You may comfort me by saying that you're all by a tune, and you will say:
E                                  G
 I wonder what's so wrong about it, I wonder what's so happy about it
A7                                       E
 And I want it now and you will never be alive

A7                                     E
 I want it now, but you were never my kind
A7                                    E
 So cry at night when the band pullet out

--------------------------------------------------------------------------------
* Do you also get the feeling that the guitars on this track are out of tune?
Well they are, and that's the reason why I've written "12b" on the first riff.
Especially the G string is tuned a bit "wrong" and that becomes obvious when playing the
and the solo. You can cope with that by slightly bending every note on the G string OR
making sure that your guitar is out of tune too. Finally, the lyrics are taken from 
(as usual) and I doubt they are any good.





Comments


Popular Mando Diao tabs & chords
Carbon Place Chords
Deep Blue Sea Chords
Mexican Hardcore Chords
Mexican Hardcore 1 Chords
No More Tears Chords
Wildfire If It Was True Chords
Chet Baker Tabs
Mr Moon Tabs
Strovtag I Hembygden Tabs
Dance With Somebody 2 Ukulele


Song lyrics



↑ Back to top | Tablatures and chords are parodies/interpretations of the original songs. You may use it for private study, scholarship, research or language learning purposes only
© 2014 AZChords.com Contact us | Privacy policy | DMCA | Add/correct tabs | Request tabs | Top 50 tabs