» » »

Mando Diao, Blue Lining, White Trenchcoat Bass tabs (ver.1)

Artists:  A B C D E F G H I J K L M N O P Q R S T U V W X Y Z # 

Blue Lining, White Trenchcoat Bass tabs (ver.1)

Mando Diao Tabs
Rating:
0/5 (0 votes)
Blue Lining, White Trenchcoat lessons Tabs too difficult? Try these video lessons and learn fast
                -------------------------------------------------------------------------------
			     BLUE LINING WHITE TRENCHCOAT - Mando Diao
-------------------------------------------------------------------------------


Tuning: standart

Intro/Verse

G|-----------------7-7-7-7-7-7-7-7-7-------------------6-6-6-6-6-6-6-6-|          
D|---------3----------------------------------2------------------------|                
A|-5-5-5-5---5-5-5--------------------4-4-4-4---4-4-4------------------|
E|---------------------------------------------------------------------|

1:12 - Refrain "I'm going down.."

Refrain

G|---------------------------------------------------3-7-3-7~----3-5-2~|
D|-8-8-8--8---7-7-7--7-----------5--7-7-7--7------5~-------------------|
A|-------8-8--------7-7--5-5-5--5---------7-7--------------------------|
E|-----------------------------5---------------------------------------|

1:25 - Verse

2:05 - Refrain

Verse

2:30 - 2:42 - no bass

Bridge

G|---------------------------------------------------------------------|
D|-----9-12-12-9---------5----5----------------------------------------|
A|-7~------------11-7~----7-7--7-7~---5h7~-----------------------------|
E|---------------------------------------------------------------------|

2:57 - Verse

3:09 - play this:

G|-----------2-2-2-2-2-02--------------2-2-2-2-2-02-0-0-0-0-020--------|
D|-3-3-3-3-3----------2---0-0-0-0-0-------------2----------------------|
A|---------------------------------035---------------------------------|
E|---------------------------------------------------------------------|

G|-----------------2-2-2-2-2020----------------------------------------|
D|--0-3-3-3-3-3035--------------0-0-0-0-0--0---------------------------|
A|---------------------------------------03----------------------------|
E|---------------------------------------------------------------------|

3:24 - Refrain

end on

G|-------------|
D|-------------|
A|-5/17~~~~----|
E|-------------|


| /  slide up
| \  slide down
| h  hammer-on
| p  pull-off
| ~  vibrato
| +  harmonic
| x  Mute note
===============================================================================
            
Submit corrections

comments powered by Disqus
↑ Back to top | Mando Diao Bass for Blue Lining, White Trenchcoat. Lyrics for acoustic guitar and electric guitar. Tablatures and chords are parodies/interpretations of the original songs. You may use it for private study, scholarship, research or language learning purposes only