» » »

All My Senses Tabs (ver.1)

Artists:  A B C D E F G H I J K L M N O P Q R S T U V W X Y Z # 

All My Senses Tabs (ver.1)

Mando Diao
Rating:
5/5 (12 votes)

Tabs too difficult? Try these video lessons and learn fast.
                
Hi all!
Finally made it! Tabbed out main parts of this great song. Damn intro took me too
long :D Have fun playing it!
There’s also something going on with the 2nd guitar in the chorus but it was too


[Intro]

("Intros & solos are very much welcome here" ...)

  f#m  
|--------------------------------------------------------|
|--------------------------------------------------------|
|--------6-------------6-----------6--9-----8-----6------|
|----7-----7---7---7-----7---7---7------7-----7-----7----|
|--9---9-----9---9---9-----9---9----------9-----9-----9--|
|--------------------------------------------------------|
   A
|--------------------------------------------------------|
|-----------10------12------10---------------------------|
|--------9-----9-------9-------9-------------------------|
|-----11---------11------11------11----------------------|
|--12----------------------------------------------------|
|--------------------------------------------------------|
   hm            c#m       hm       A
|--------7--------------9--------7-----------------------|
|------7---7----------9--------7------------10---------10|
|----7-------7------9--------7------------9----9---------|
|--9-------------11--------9-----------11--------11------|
|-----------------------------------12--------------1212-|
|--------------------------------------------------------|
            
Tabs too difficult? Try these video lessons and learn fast.




comments powered by Disqus
↑ Back to top | Tablatures and chords are parodies/interpretations of the original songs. You may use it for private study, scholarship, research or language learning purposes only