>
 >
Window

Window Guitar Tabs

Manchester Orchestra - Window chords, tabs, tablatures, lyrics

Guitar lessons | Add/correct | Request | Top 50 tabs Artists:  A B C D E F G H I J K L M N O P Q R S T U V W X Y Z 0-9

Window Guitar Tabs – Manchester Orchestra

CD, Sheet music, Poster

Do you like Window? Share with your friends now
Tabs
in the second guitar part but I got lazy around the Bridge.

Verse
Guitar 1
e------------------------------------------------------|
b------------------------------------------------------|
g------------------------------------------------------|
d-4-4-4-4-4-4-4-4-2-2-2-2-2-2-2-2-----3-3-3------3-3-3-| x4
a-5-5-5-5-5-5-5-5-0-0-0-0-0-0-0-0--2-2------2-2-2------|
e------------------------------------------------------|

Guitar 2 [doesn't play for the first four measures]
e-------------------------------------------2-------2-|
b-7-7-7-7-5-5-5-5-7-7-7-7-5-5-5-5-------3-------3-----|
g-7-7-7-7-7-7-7-7-7-7-7-7-7-7-7-7-----4---4---4---4---|
d-----------------------------------------------------| x3
a-----------------------------------------------------|
e-----------------------------------------------------|

Chorus
Guitar 1
e-------------------------------------------|
b-------------------------------------------|
g-------------------------------------------|
d--------2-0---2-0-----------2-0---2-0------|
a---0-2-----2-0---2-0-----------2-0---2-0---|
e-3-----------------------------------------|

Guitar 2
e----------2---2---2---2-5-2---2---2---2---2-5-2-|
b-7------3---3---3---3--3----3---3---3---3--3----|
g-7----------------------------------------------|
d-5----------------------------------------------|
a------------------------------------------------|
e------------------------------------------------|

Verse x4
Chorus

Bridge

Guitar 1
e---------------------------------|
b---------------------------------|
g---------------------------------|
d-2-0-0-------2-0-0---------------| x4
a-------2-0-0------2-0-0--2-0-2-0-|
e---------------------------------|

e--------------------------------------------------------|
b--------------------------------------------------------|
g------------------2-2-2-2-2-2-2-2--4---4---4---4---4--4-|
d-5-5-5-5-5-5-5-5--2-2-2-2-2-2-2-2--4---4---4---4---4--4-| x2
a-5-5-5-5-5-5-5-5--0-0-0-0-0-0-0-0--2---2---2---2---2--2-|
e-3-3-3-3-3-3-3-3----------------------------------------|

e-----------------------------------|
b-----------------------------------|
g------------------2-2-2-2-2-2-2-2--|
d-5-5-5-5-5-5-5-5--2-2-2-2-2-2-2-2--|
a-5-5-5-5-5-5-5-5--0-0-0-0-0-0-0-0--|
e-3-3-3-3-3-3-3-3-------------------|

Outro
e----------------------------------|
b----------------------------------|
g----------------------------------|
d-2-0----2-0--------2-0---2-0------| x4
a-----2-0---2-0--------2-0---2-0---|
e----------------------------------|


e---2---2---2---2-5-2---2---2---2---2-5-2-|
b-3---3---3---3--3----3---3---3---3--3----|
g-----------------------------------------|
d-----------------------------------------| x4
a-----------------------------------------|
e-----------------------------------------|


rate it, hate it...i just got bored so there it was.





Comments


Popular Manchester Orchestra tabs & chords
How I Waited Chords
I Can Barely Breathe Chords
I Was A Lid Chords
Simple Math Chords
Alice And Interiors Intro 1 Tabs
Everything To Nothing Tabs
I Was A Lid Tabs
Simple Math Intro Tabs
I Can Barely Breathe Ukulele
The Neighborhood Is Bleeding Ukulele


Song lyrics



↑ Back to top | Tablatures and chords are parodies/interpretations of the original songs. You may use it for private study, scholarship, research or language learning purposes only
© 2014 AZChords.com Contact us | Privacy policy | DMCA | Add/correct tabs | Request tabs | Top 50 tabs