» » »

Manchester Orchestra, Where Have You Been Tabs (ver.3)

Artists:  A B C D E F G H I J K L M N O P Q R S T U V W X Y Z # 

Where Have You Been Tabs (ver.3)

Manchester Orchestra Tabs
 Rating:
4/5 (4 votes)
Where Have You Been lessons Tabs too difficult? Try these video lessons and learn fast
                "Tuning: Standard
This is a beautiful song that my band and I are going to be covering. So i tabbed 
out the parts. This includes piano.
**Note on piano: Right thumb on Middle C, Left pinky on one octave lower C**
**Therefore, the notes are just octaves of each other**

Intro Riff
Guitar 1- Clean
e|------------|
B|---------10-| 
G|----9-------| Repeat 4x
D|-11---11----|
A|------------|
E|------------|

Intro Riff Continues...
Piano
RH: F#           E              D              A      F#
LH: F#           E              D
e|----------9---|----------9---|----------9---|----------9---|
B|----------10--|----------10--|----------10--|----------10--|
G|.----9-------.|.----9-------.|.----9-------.|.----9-------.|
D|.-11---11----.|.-11---11----.|.-11---11----.|.-11---11----.|
A|--------------|--------------|--------------|--------------|
E|--------------|--------------|--------------|--------------|
                                      3x

RH: F#           G#              A       E      C#           <--E,C# above A
LH: F#           G#              A
e|----------9---|----------9---|----------9---||----------9--||
B|----------10--|----------10--|----------10--||----------10-||
G|.----9-------.|.----9-------.|.----9-------.||----9--------||
D|.-11---11----.|.-11---11----.|.-11---11----.||-11---11-----||
A|--------------|--------------|--------------||-------------||
E|--------------|--------------|--------------||-------------||
                                      3x           Ending A

Verse 1
Guitar 1- clean
 Holidays...reason...coming...catching...season...God...
e|---------------------------|--------------------------|
B|---------------------------|--------------------------|
G|---------------------------|--------------------------|
D|---------------------------|--------------------------|
A|-9---------7---------5-----|----9--------7-------5----|
E|---------------------------|--------------------------|
   w/o bass                       w/ bass

Intro Riff (Variation)
RH: F#           E              D        A      F#
LH: F#           E              D
e|----------9---|----------9---|----------9---||-------------||
B|----------10--|----------10--|----------10--||----14-------||
G|.----9-------.|.----9-------.|.----9-------.||-------14-11-||
D|.-11---11----.|.-11---11----.|.-11---11----.||-11----------||
A|--------------|--------------|--------------||-------------||
E|--------------|--------------|--------------||-------------||
                                      3x           Ending B

Verse 2
Guitar 1- Clean
 Deliver...small...porch..wish...known...sat...Lord...
e|-----------------------------|----------------------|
B|-----------------------------|----------------------|
G|-----------------------------|----11-----9----------|
D|-----------------------------|----------------------|
A|-9---------7-------5-----7---|--9------7------5-----|
E|-----------------------------|----------------------|
   w/ bass

Chorus
  Too...me...digesting...legs
e|--------------------------------------------|
B|------2-------------------------------------|
G|-4----2---------------------1h2---2p1-------|
D|-4----2------4----------2-------2-----2-----|
A|-2----0------4----------2---------------2-0-|
E|-------------2----------0-------------------|

       See...me...days
e|--------------------|
B|------2-------------|
G|-4----2----------7--|
D|-4----2----2-----7--|
A|-2----0----2-----5--|
E|-----------0--------|

Intro Riff
RH: F#           E               D       A      F#
LH: F#           E               D
e|----------9---|----------9---|----------9---||-------------||
B|----------10--|----------10--|----------10--||----14-------||
G|.----9-------.|.----9-------.|.----9-------.||-------14-11-||
D|.-11---11----.|.-11---11----.|.-11---11----.||-11----------||
A|--------------|--------------|--------------||-------------||
E|--------------|--------------|--------------||-------------||
                                      3x           Ending B

RH: F#           G#              A       E      C#     
LH: F#           G#              A
e|----------9---|----------9---|----------9---||----------9--||
B|----------10--|----------10--|----------10--||----------10-||
G|.----9-------.|.----9-------.|.----9-------.||----9--------||
D|.-11---11----.|.-11---11----.|.-11---11----.||-11---11-----||
A|--------------|--------------|--------------||-------------||
E|--------------|--------------|--------------||-------------||
                                      3x           Ending A

Interlude
I gotta take......take....you...
e|-----------------------------------------------|
B|-----------------------------------------------|
G|------11-11-XXX-9-9-XXX-7-7-XXX-7-7-XXX-9-9-XX-|
D|------11-11-XXX-9-9-XXX-7-7-XXX-7-7-XXX-9-9-XX-|
A|------9--9--XXX-7-7-XXX-5-5-XXX-5-5-XXX-7-7-XX-|
E|-----------------------------------------------|

I gotta break....break....you...
e|------------------------------------------|
B|------------------------------------------|
G|------11-11-XXX-9-9-XXX-7-7-XXX-7-7-XXXXX-|
D|------11-11-XXX-9-9-XXX-7-7-XXX-7-7-XXXXX-|
A|------9--9--XXX-7-7-XXX-5-5-XXX-5-5-XXXXX-|
E|------------------------------------------|

Chorus
     ...me...digesting...legs
e|--------------------------------------------|
B|------2-------------------------------------|
G|-4----2---------------------1h2-----2p1-----|
D|-4----2-----------------2-------2-------2---|
A|-2----0-----------------2---------2-------0-|
E|-------------2----------0-------------------|

       See...me...days
e|--------------------|
B|------2-------------|
G|-4----2----------7--|
D|-4----2----------7--|
A|-2----0----2-----5--|
E|-----------0--------|

Intro Riff (Variation)- 2x
 1-Ending B
 2-Ending A

Outro-(Joy, Joy)
 Intro Riff 8x
   With Endings: A, B, A, A, A, A, A, A

End Chord
RH: F#m (F#AC#)
LH: A
e|----|
B|----|
G|----|
D|-4--|
A|-4--|
E|-2--|                                 
"            
Submit corrections

comments powered by Disqus
↑ Back to top | Manchester Orchestra Tabs for Where Have You Been. Lyrics for acoustic guitar and electric guitar. Tablatures and chords are parodies/interpretations of the original songs. You may use it for private study, scholarship, research or language learning purposes only