» » »

Manchester Orchestra, The River Tabs (ver.1)

Artists:  A B C D E F G H I J K L M N O P Q R S T U V W X Y Z # 

The River Tabs (ver.1)

Manchester Orchestra Tabs
 Rating:
4/5 (4 votes)
The River lessons Tabs too difficult? Try these video lessons and learn fast
                Not perfect so feedback is welcome.

Drop Db tuning (Db Ab Db Gb Bb eb)

Intro
|----------------------------|
|----------------------------|
|----------------------------|
|--12-12-11-9p7p4-2h4b-2h4---|
|--0--0--0--0-----0----0-----|
|--0--0--0--0-----0----0-----|x2

Verse1
|------------------------------------------|
|------------------------------------------|
|------------------------------------------|
|--0-4-0---4-0-7-7--7--5-5--5--0-4-0---4-0-|
|--0-----0-----7--7--7-5--5--5-0-----0-----|
|--0-----------7---7---5---5---0-----------|x2

Prechorus1
|----------|
|----------|
|----------|
|-0h4-5-0--|
|-0h4-5-0--|
|-0h4-5-0--|X2

repeat Intro riffx2

Verse2
|------------------------------------------|
|------------------------------------------|
|------------------6-------4---------------|
|--0--0-4-0----7--7-7--5--5-5--0--0-4-0----|
|--0-0-----0---7-7---7-5-5---5-0-0-----0---|
|--0-----------7-------5-------0-----------|x2

Prechorus2
|---------------------------|
|---------------------------|
|-----3-------4-------------|
|-4--4-4--5--5-5--0--0-4-0--|
|-4-4---4-5-5---5-0-0-----0-|
|-4-------5-------0---------|X2 (end at 5's second time)

Bridge
|---------------------------------|
|---------------------------------|
|---------------------------------|
|-0-----------5-(at "Oh my   )-0--|
|-0-(a bunch)-5-(God, Make me)-0--|
|-0-----------5-(clean again )-0--|

Intro riff again then
|--------------------------------------|
|--------------------------------------|
|--------9--9h11-11h12-14-12-11h12p11--|
|--12-12-0--0----0-----0--0--0---------|
|--0--0--0--0----0-----0--0--0---------|
|--0--0--0--0----0-----0--0--0---------|and back to intro once

Verse1
Prechorus1 x4
Intro riff x2
Bridge
            
Submit corrections

comments powered by Disqus
↑ Back to top | Manchester Orchestra Tabs for The River. Lyrics for acoustic guitar and electric guitar. Tablatures and chords are parodies/interpretations of the original songs. You may use it for private study, scholarship, research or language learning purposes only