» » »

The Procession Tabs (ver.1)

Artists:  A B C D E F G H I J K L M N O P Q R S T U V W X Y Z # 

The Procession Tabs (ver.1)

Manchester Orchestra
Rating:
0/5 (0 votes)

Tabs too difficult? Try these video lessons and learn fast.
                Manchester Orchestra - The Procession

Intro

E|-0---------2---------|
B|-3---------3---------|
G|-4---------2---------|   x2
D|-4---------0---------|
A|-2-------------------|
E|---------------------|

Verse

E|-0---------2---------|
B|-3---------3---------|
G|-4---------2---------|   x6
D|-4---------0---------|
A|-2-------------------|
E|---------------------|

Chorus

E|-0---------3---------|
B|-3---------3---------|
G|-4---------0---------|   
D|-4---------0---------|
A|-2---------2---------|
E|-----------3---------|  \
                           x2
E|-2---------0---------|  /
B|-3---------2---------|
G|-2---------2---------|   
D|-0---------2---------|
A|-----------0---------|
E|---------------------|

Verse 2

E|-----0-------2-2h3-2-2h3p2---|
B|----3-3-----3--------------3-|
G|---4---4---2-----------------|   x1
D|--4-----4-0------------------|
A|-2---------------------------|
E|-----------------------------|

E|-----0-------2---------------|
B|----3-3-----3----------------|
G|---4---4---2-----------------|   x1
D|--4-----4-0------------------|
A|-2---------------------------|
E|-----------------------------|

E|-----0-------2-2h3-2-2h3p2---|
B|----3-3-----3--------------3-|
G|---4---4---2-----------------|   x3
D|--4-----4-0------------------|
A|-2---------------------------|
E|-----------------------------|

E|-----0-------2---------------|
B|----3-3-----3----------------|
G|---4---4---2-----------------|   x1
D|--4-----4-0------------------|
A|-2---------------------------|
E|-----------------------------|

Chorus

E|-0---------3---------|
B|-3---------3---------|
G|-4---------0---------|   
D|-4---------0---------|
A|-2---------2---------|
E|-----------3---------|  \
                           x2
E|-2---------0---------|  /
B|-3---------2---------|
G|-2---------2---------|   
D|-0---------2---------|
A|-----------0---------|
E|---------------------|

Bridge

E|------x---------x----|
B|------x---------x----|
G|-4----x----7----x----|   
D|-4-x6-x-4--7-x6-x-7--|
A|-2----x-4--5----x-7--|
E|------x-2-------x-5--|  \
                           x2
E|---------------------|  /
B|---------------------|
G|---------------------|   
D|-5-------------------|
A|-5-(pick a pattern)--|
E|-3-------------------|

E|-0---------2---------|
B|-3---------3---------|
G|-4---------2---------|   x2
D|-4-x8------0---------|
A|-2-------------------|
E|---------------------|

Outro

E|-----0-------2-2h3-2-2h3p2---|
B|----3-3-----3--------------3-|
G|---4---4---2-----------------|   x1
D|--4-----4-0------------------|
A|-2---------------------------|
E|-----------------------------|

E|-----0-------2---------------|
B|----3-3-----3----------------|
G|---4---4---2-----------------|   x1
D|--4-----4-0------------------|
A|-2---------------------------|
E|-----------------------------|

E|-2-|
B|-3-|
G|-2-|   x1
D|-0-|
A|---|
E|---|
            
Tabs too difficult? Try these video lessons and learn fast.


comments powered by Disqus
↑ Back to top | Tablatures and chords are parodies/interpretations of the original songs. You may use it for private study, scholarship, research or language learning purposes only