» » »

The Other Side Tabs (ver.1)

Artists:  A B C D E F G H I J K L M N O P Q R S T U V W X Y Z # 

The Other Side Tabs (ver.1)

Manchester Orchestra
Rating:
0/5 (0 votes)

Tabs too difficult? Try these video lessons and learn fast.
                

Tuning:standard
Intro
e|---------------------|--------------------------------------|
B|---------------------|--------------------------------------|
G|---------------------|--------------------------------------|
D|---------------------|----------------------------9---------|
A|-5(x8)-7(x8)---------|-that(x3)-Then--5(x8)-7(x8)-9-(x16)---|
E|-------------7(x16)--|----------------------------7---------|
(0:24)
e|----------------------------------------------------------|
B|----------------------------------------------------------|
G|-------7-----------------------------7--------------------|that (x2
D|-5-----7(x8)-7-----9-----7-----5-----7(x8)-7----7xx7xx7---|ending part
A|-5(x8)-5-----7(x8)-9(x4)-7(x4)-5(x8)-5-----7(x4)7xx7xx7---|changes 2nd 
E|-3-----------5-----7-----5-----3-----------5----5xx5xx5---|time
(0:49)
e|------------------------------------------------------|
B|------------------------------------------------------|
G|-77----99-----------7----9----------------------------|
D|-77----99----9------7(x8)9(x8)9x9x9x9x----------------|
A|-55----77----9(x16)-5----7----9x9x9x9x----------------|
E|-------------7----------------7x7x7x7x----------------|
(1:01) 
e|------------------------------------------------------------|
B|------------------------------------------------------------|
G|-77-77-99--------7-----9------------------------------------|
D|-77-77-99-9------7(x8)-9(x8)-9x9x9x9x-----------------------|
A|-55-55-77-9(x16)-5-----7-----9x9x9x9x-----------------------|
E|----------7------------------7x7x7x7x-----------------------|
(1:13)
e|----------------------------------------------------------|
B|----------------------------------------------------------|
G|-------7-----------------------------7--------------------|that (x2
D|-5-----7(x8)-7-----9-----7-----5-----7(x8)-7----7xx7xx7---|ending part
A|-5(x8)-5-----7(x8)-9(x4)-7(x4)-5(x8)-5-----7(x4)7xx7xx7---|changes 2nd 
E|-3-----------5-----7-----5-----3-----------5----5xx5xx5---|time
(1:41)
slow strumming and some picking now
e|-------------------------------------|
B|-------------------------------------|
G|-------7-----------------------------|
D|-5-----7(x8)-7-----9-----7-----5~----|(x alot)
A|-5(x8)-5-----7(x8)-9(x4)-7(x4)-5~----|
E|-3-----------5-----7-----5-----3~----|
(2:59)
e|----------------------------------------------------------|
B|----------------------------------------------------------|
G|----------------------------------------------------------|
D|-x7x7x7x7---------------x9x9x9x9--------------------------|
A|-x7x7x7x7---5(x8)-7(x8)-x9x9x9x9--------------------------|
E|-x5x5x5x5---------------x7x7x7x7--------------------------|
            
Tabs too difficult? Try these video lessons and learn fast.




comments powered by Disqus
↑ Back to top | Tablatures and chords are parodies/interpretations of the original songs. You may use it for private study, scholarship, research or language learning purposes only