» » »

Manchester Orchestra, The Only One Tabs (ver.1)

Artists:  A B C D E F G H I J K L M N O P Q R S T U V W X Y Z # 

The Only One Tabs (ver.1)

Manchester Orchestra Tabs
 Rating:
4/5 (4 votes)
The Only One lessons Tabs too difficult? Try these video lessons and learn fast
1
                
Tuning:Drop C#

This is kinda of the way Andy Hull plays this song live. Every time i've
 seen them play it, its just Andy playing till the very end of the song
where it turns into a break down with the whole band.
You can play C# as 000xxx or 12 12 12 x x x. The album version plays on the
 12th fret most the time, but live he usually just plays it open.

I am the only one... crazy and ... what to do
eb|-------------------------------------------------------|
Bb|-------------------------------------------------------|
Gb|-------------------------------------------------------|
Db|-0-------------------5-------------------0-------------|
Ab|-0-------------------5-------------------0-------------|
Db|-0-------------------5-------------------0-------------|

But if it was you, I don't think it would matter

eb|-------------------------------------------------------|
Bb|-------------------------------------------------------|
Gb|-------------------------------------------------------|
Db|------------7--------------9------------5-----------0--|
Ab|------------7--------------9------------5-----------0--|
Db|------------7--------------9------------5-----------0--|

I bet you did... do it again... done with it.

eb|-----------------------------------------------------|
Bb|-----------------------------------------------------|
Gb|-----------------------------------------------------|
Db|-7-------------5------------------------0------------|
Ab|-7-------------5------------------------0------------|
Db|-7-------------5------------------------0------------|

Sliding part throughout the song.

eb|-----------------------------------------------------|
Bb|-----------------------------------------------------|
Gb|-----------------------------------------------------|
Db|-0/3--0/3--0/3--0/3~0-0-0-0--------------------------|
Ab|-0/3--0/3--0/3--0/3~0-0-0-0--------------------------|
Db|-0/3--0/3--0/3--0/3~0-0-0-0--------------------------|

or like this. Keep a finger on the 12th those first 3 times and hit the 15th with another finger

eb|------------------------------------------------------|
Bb|------------------------------------------------------|
Gb|------------------------------------------------------|
Db|-12h15p-12h15p-12h15p-12/15~-12-12-12-12--------------|
Ab|-12h15p-12h15p-12h15p-12/15~-12-12-12-12--------------|
Db|-12h15p-12h15p-12h15p-12/15~-12-12-12-12--------------|

************************************

| /   slide up
| \   slide down
| h   hammer-on
| p   pull-off
| ~   vibrato
| +   harmonic
| x   Mute note
| b   Bend
| pb  Pre-bend
| br  Bend release
| pbr Pre-bend release
| brb Bend release bend

************************************
            
Submit corrections

comments powered by Disqus
↑ Back to top | Manchester Orchestra Tabs for The Only One. Lyrics for acoustic guitar and electric guitar. 1 Tablatures and chords are parodies/interpretations of the original songs. You may use it for private study, scholarship, research or language learning purposes only