» » »

Play It Again, Sam! You Don't Have Any Feathers Tabs (ver.1)

Artists:  A B C D E F G H I J K L M N O P Q R S T U V W X Y Z # 

Play It Again, Sam! You Don't Have Any Feathers Tabs (ver.1)

Manchester Orchestra
Rating:
0/5 (0 votes)

Hard to play? Try these video lessons and learn fast.
                -------------------------------------------------------------------------------
-------------------------------------------------------------------------------


Tuning: Standard

Intro:

e|-------------------------------------------------------------------|
B|---------6---------------7---------------2-------3-------2---------|
G|-----6-------6---6---7-------7---7---2-------2-------2-------2---2-|
D|-------------------------------------------------------------------|
A|---4---4---4---4---5---5---5---5---0---0---0---0---0---0---0---0---|
E|-------------------------------------------------------------------|

e|-------------------------------------------------------------------|
B|---------6---------------7---------------2-------3-------2---------|
G|-----6-------6---6---7-------7---7---2-------2-------2-------2---2-|
D|-------------------------------------------------------------------|
A|---4---4---4---4---5---5---5---5---0---0---0---0---0---0---0---0---|
E|-------------------------------------------------------------------|

Verse 1:

e|-------------------------------------------------------------------|
B|---------6---------------7---------------2-------3-------2---------|
G|-----6-------6---6---7-------7---7---2-------2-------2-------2---2-|
D|-------------------------------------------------------------------|
A|---4---4---4---4---5---5---5---5---0---0---0---0---0---0---0---0---|
E|-------------------------------------------------------------------|

e|-------------------------------------------------------------------|
B|---------6-------6-------7---------------2-------3-------2---------|
G|-----6-------6-------7-------7---7---2-------2-------2-------2---2-|
D|-------------------------------------------------------------------|
A|---4---4---4---4---5---5---5---5---0---0---0---0---0---0---0---0---|
E|-------------------------------------------------------------------|

e|-------------------------------------------------------------------|
B|---------6---------------7---------------2---------------0---------|
G|-----6-------6---6---7-------7---7---2-------2---2---2-------2---2-|
D|-------------------------------------------------------------------|
A|---4---4---4---4---5---5---5---5---0---0---0---0-------------------|
E|---------------------------------------------------0---0---0---0---|

e|-------------------------------------------------------------------|
B|---------7-------7-------7-------7-------6-------6-------6---------|
G|-----7-------7-------7-------7-------7-------7-------7-------7---7-|
D|-------------------------------------------------------------------|
A|---5---5---5---5---5---5---5---5---5---5---5---5---5---5---5---5---|
E|-------------------------------------------------------------------|

e|-------------------------------------------------------------------|
B|---------2-------2-------2-------2-------2-------2-------2---------|
G|-----2-------2-------2-------2-------2-------2-------2-------2---2-|
D|-------------------------------------------------------------------|
A|---0---0---0---0---0---0---0---0---0---0---0---0---0---0---0---0---|
E|-------------------------------------------------------------------|

Verse 2:

e|-------------------------------------------------------------------|
B|---------6---------------7---------------2-------3-------2---------|
G|-----6-------6---6---7-------7---7---2-------2-------2-------2---2-|
D|-------------------------------------------------------------------|
A|---4---4---4---4---5---5---5---5---0---0---0---0---0---0---0---0---|
E|-------------------------------------------------------------------|

e|-------------------------------------------------------------------|
B|---------6---------------7---------------2-------3-------2---------|
G|-----6-------6---6---7-------7---7---2-------2-------2-------2---2-|
D|-------------------------------------------------------------------|
A|---4---4---4---4---5---5---5---5---0---0---0---0---0---0---0---0---|
E|-------------------------------------------------------------------|

e|-------------------------------------------------------------------|
B|---------6---------------7---------------2---------------0---------|
G|-----6-------6---6---7-------7---7---2-------2---2---2-------2---2-|
D|-------------------------------------------------------------------|
A|---4---4---4---4---5---5---5---5---0---0---0---0-------------------|
E|---------------------------------------------------0---0---0---0---|

e|-------------------------------------------------------------------|
B|---------7-------7-------7---------------6-------6-------6---------|
G|-----7-------7-------7-------7---7---7-------7-------7-------7---7-|
D|-------------------------------------------------------------------|
A|---5---5---5---5---5---5---5---5---5---5---5---5---5---5---5---5---|
E|-------------------------------------------------------------------|

e|-------------------------------------------------------------------|
B|---------2-------2-------2---------------2-------2-------2---------|
G|-----2-------2-------2-------2---2---2-------2-------2-------2---2-|
D|-------------------------------------------------------------------|
A|---0---0---0---0---0---0---0---0---0---0---0---0---0---0---0---0---|
E|-------------------------------------------------------------------|

Chorus 1:

e|-------------------------------------------------------------------|
B|---------7-------7-------7---------------9-------9-------9---------|
G|-----7-------7-------7-------7---7---9-------9-------9-------9---9-|
D|-------------------------------------------------------------------|
A|---5---5---5---5---5---5---5---5---7---7---7---7---7---7---7---7---|
E|-------------------------------------------------------------------|

e|-------------------------------------------------------------------|
B|---------10-----10------10---------------14------14------14--------|
G|-----11------11------11------11--11--14------14------14------14--14|
D|-------------------------------------------------------------------|
A|---9---9---9---9---9---9---9---9---12--12--12--12--12--12--12--12--|
E|-------------------------------------------------------------------|

e|-------------------------------------------------------------------|
B|---------7-------7-------7---------------9-------9-------9---------|
G|-----7-------7-------7-------7---7---9-------9-------9-------9---9-|
D|-------------------------------------------------------------------|
A|---5---5---5---5---5---5---5---5---7---7---7---7---7---7---7---7---|
E|-------------------------------------------------------------------|

e|-------------------------------------------------------------------|
B|---------10-----10------10---------------14------14------14--------|
G|-----11------11------11------11--11--14------14------14------14--14|
D|-------------------------------------------------------------------|
A|---9---9---9---9---9---9---9---9---12--12--12--12--12--12--12--12--|
E|-------------------------------------------------------------------|

e|-------------------------------------------------------------------|
B|---------7---------------9---------------2-------2-------2---------|
G|-----7-------7---7---9-------9---9---2-------2-------2-------2---2-|
D|-------------------------------------------------------------------|
A|---5---5---5---5---7---7---7---7---0---0---0---0---0---0---0---0---|
E|-------------------------------------------------------------------|

Verse 3:

e|-------------------------------------------------------------------|
B|---------6---------------7---------------2-------3-------2---------|
G|-----6-------6---6---7-------7---7---2-------2-------2-------2---2-|
D|-------------------------------------------------------------------|
A|---4---4---4---4---5---5---5---5---0---0---0---0---0---0---0---0---|
E|-------------------------------------------------------------------|

e|-------------------------------------------------------------------|
B|---------6---------------7---------------2-------2-------3---------|
G|-----6-------6---6---7-------7---7---2-------2-------2-------2---2-|
D|-------------------------------------------------------------------|
A|---4---4---4---4---5---5---5---5---0---0---0---0---0---0---0---0---|
E|-------------------------------------------------------------------|

e|-------------------------------------------------------------------|
B|---------6---------------7---------------2---------------0---------|
G|-----6-------6---6---7-------7---7---2-------2---2---2-------2---2-|
D|-------------------------------------------------------------------|
A|---4---4---4---4---5---5---5---5---0---0---0---0-------------------|
E|---------------------------------------------------0---0---0---0---|

e|-------------------------------------------------------------------|
B|---------7-------7-------7---------------6-------6-------6---------|
G|-----7-------7-------7-------7---7---7-------7-------7-------7---7-|
D|-------------------------------------------------------------------|
A|---5---5---5---5---5---5---5---5---5---5---5---5---5---5---5---5---|
E|-------------------------------------------------------------------|

e|-------------------------------------------------------------------|
B|---------2-------2-------2-------2-------2-------2-------2---------|
G|-----2-------2-------2-------2-------2-------2-------2-------2---2-|
D|-------------------------------------------------------------------|
A|---0---0---0---0---0---0---0---0---0---0---0---0---0---0---0---0---|
E|-------------------------------------------------------------------|

Verse 4:

e|-------------------------------------------------------------------|
B|---------6---------------7---------------2-------3-------2---------|
G|-----6-------6---6---7-------7---7---2-------2-------2-------2---2-|
D|-------------------------------------------------------------------|
A|---4---4---4---4---5---5---5---5---0---0---0---0---0---0---0---0---|
E|-------------------------------------------------------------------|

e|-------------------------------------------------------------------|
B|---------6---------------7---------------2-------3-------2---------|
G|-----6-------6---6---7-------7---7---2-------2-------2-------2---2-|
D|-------------------------------------------------------------------|
A|---4---4---4---4---5---5---5---5---0---0---0---0---0---0---0---0---|
E|-------------------------------------------------------------------|

e|-------------------------------------------------------------------|
B|---------6---------------7---------------2---------------0---------|
G|-----6-------6---6---7-------7---7---2-------2---2---2-------2---2-|
D|-------------------------------------------------------------------|
A|---4---4---4---4---5---5---5---5---0---0---0---0-------------------|
E|---------------------------------------------------0---0---0---0---|

e|-------------------------------------------------------------------|
B|---------7-------7-------7---------------6-------6-------6---------|
G|-----7-------7-------7-------7---7---7-------7-------7-------7---7-|
D|-------------------------------------------------------------------|
A|---5---5---5---5---5---5---5---5---5---5---5---5---5---5---5---5---|
E|-------------------------------------------------------------------|

e|-------------------------------------------------------------------|
B|---------2-------2-------2---------------2-------2-------2---------|
G|-----2-------2-------2-------2---2---2-------2-------2-------2---2-|
D|-------------------------------------------------------------------|
A|---0---0---0---0---0---0---0---0---0---0---0---0---0---0---0---0---|
E|-------------------------------------------------------------------|

Chorus 2:

e|-------------------------------------------------------------------|
B|---------7-------7-------7---------------9-------9-------9---------|
G|-----7-------7-------7-------7---7---9-------9-------9-------9---9-|
D|-------------------------------------------------------------------|
A|---5---5---5---5---5---5---5---5---7---7---7---7---7---7---7---7---|
E|-------------------------------------------------------------------|

e|-------------------------------------------------------------------|
B|---------10-----10------10---------------14------14------14--------|
G|-----11------11------11------11--11--14------14------14------14--14|
D|-------------------------------------------------------------------|
A|---9---9---9---9---9---9---9---9---12--12--12--12--12--12--12--12--|
E|-------------------------------------------------------------------|

e|-------------------------------------------------------------------|
B|---------7-------7-------7---------------9-------9-------9---------|
G|-----7-------7-------7-------7---7---9-------9-------9-------9---9-|
D|-------------------------------------------------------------------|
A|---5---5---5---5---5---5---5---5---7---7---7---7---7---7---7---7---|
E|-------------------------------------------------------------------|

e|-------------------------------------------------------------------|
B|---------10-----10------10---------------14------14------14--------|
G|-----11------11------11------11--11--14------14------14------14--14|
D|-------------------------------------------------------------------|
A|---9---9---9---9---9---9---9---9---12--12--12--12--12--12--12--12--|
E|-------------------------------------------------------------------|


Ending:

e|-------------------------------------------------------------------|
B|---------7---------------9---------------10------10------10--------|
G|-----7-------7---7---9-------9---9---11-----11------11------11--11-|
D|-------------------------------------------------------------------|
A|---5---5---5---5---7---7---7---7---9---9---9---9---9---9---9---9---|
E|-------------------------------------------------------------------|

e|-------------------------------------------------------------------|
B|---------7---------------9---------------10------10------10--------|
G|-----7-------7---7---9-------9---9---11-----11------11------11--11-|
D|-------------------------------------------------------------------|
A|---5---5---5---5---7---7---7---7---9---9---9---9---9---9---9---9---|
E|-------------------------------------------------------------------|

e|-------------------------------------------------------------------|
B|---------7---------------9---------------2-------2-------2---------|
G|-----7-------7---7---9-------9---9---2-------2-------2-------2---2-|
D|-------------------------------------------------------------------|
A|---5---5---5---5---7---7---7---7---0---0---0---0---0---0---0---0---|
E|-------------------------------------------------------------------|

e|-------------------------------------------------------------------|
B|---------7---------------9-----------------------------------------|
G|-----7-------7---7---9-------9---9---------------------------------|
D|-------------------------------------------------------------------|
A|---5---5---5---5---7---7---7---7---0-------------------------------|
E|-------------------------------------------------------------------|

Verse 1:
You lift your skinny fists up in the sky
Packed a change of clothes and left
In the middle of July 2005
But when the glass, it hit the wall
Mother cried and the cops were called
The day you said goodbye

Verse 2:
Your father left his work by one or two
To a crying telephone
His wife was on the other side of you
Really did it this time
The boy looks down and begins to cry
The day you said goodbye

Chorus 1:
And I know you’ve been abandoned
But don’t abandon ship on me
Just know like a winter white snow
You’ve been forgiven, come back to me
I know right now that don’t mean anything

Verse 3:
Your skinny legs bounced up into the sky
I tried to tell you to be careful not to jump that high
With your fingers crossed, you fall against the ground
I saw it all, the day you tried to fly

Verse 4:
When the red and blue lights made the scene
Your eyes were glazed, and honestly
Can you remember anything?
But when the others ran away
I prayed to God they wouldn’t stay
But sometimes He doesn’t listen

Chorus 2:
My prodigal child, come back to me
Your prodigal son is on his knees

Ending:
Sweet God, please hold on to me
Sweet God, hold her please, oh please
The day she tries to fly
Hold me, the day I try to fly 
            
Hard to play? Try these video lessons and learn fast. | Correct




comments powered by Disqus
↑ Back to top | Tablatures and chords are parodies/interpretations of the original songs. You may use it for private study, scholarship, research or language learning purposes only