» » »

Manchester Orchestra, Plat It Again Sam You Dont Have Any Feathers Tabs (ver.1)

Artists:  A B C D E F G H I J K L M N O P Q R S T U V W X Y Z # 

Plat It Again Sam You Dont Have Any Feathers Tabs (ver.1)

Manchester Orchestra Tabs
 Rating:
4/5 (4 votes)
Plat It Again Sam You Dont Have Any Feathers lessons Tabs too difficult? Try these video lessons and learn fast
                Listen to the picking pattern Andy is using. I prefer finger picking, but what ever 
for you.

Intro
e]------------------------------------------------------------|
b]-------6---------------7---------------2------3--------2----|
g]---6-------6-------7-------7-------2-------2-------2------2-| X 2
d]------------------------------------------------------------|
a]-4---4---4---4---5---5---5---5---0---0---0---0---0---0---0--|
e]------------------------------------------------------------|

You lift your skinny fists up in the sky
packed a change of clothes and left in the middle of July, 2005

e]------------------------------------------------------------|
b]-------6---------------7---------------2------3--------2----|
g]---6-------6-------7-------7-------2-------2-------2--------| X 2
d]------------------------------------------------------------|
a]-4---4---4---4---5---5---5---5---0---0---0---0---0---0---0--|
e]------------------------------------------------------------|

And when the glass it hit the wall, mother cried and the cops were called.

e]---------------------------------------------------------------|
b]-------6---------------7---------------2-------------0---------|
g]---6-------6-------7-------7-------2-------2-----1-------1-----|
d]---------------------------------------------------------------|
a]-4---4---4---4---5---5---5---5---0---0---0---2-2---2---2---2---|
e]---------------------------------------------------------------|

                                         The day you said-

e]---------------------------------------------------------------|
b]------7-------7--------7-------------6-------6--------6--------|
g]---7------7-------7--------7-----7-------7-------7-------7-----|
d]---------------------------------------------------------------|
a]-5---5---5---5---5---5---5---5-5---5---5---5---5---5---5---5---|
e]---------------------------------------------------------------|

goodbye
e]--------------------------------|
b]-------2-------2-------2--------|
g]---2-------2-------2-------2----|  X2
d]--------------------------------|
a]-0---0---0---0---0---0---0---0--|
e]--------------------------------|

Your father left his work by one or two.
To a crying telephone, his wife was on the other side of you.

e]------------------------------------------------------------|
b]-------6---------------7---------------2------3--------2----|
g]---6-------6-------7-------7-------2-------2-------2------2-| X 2
d]------------------------------------------------------------|
a]-4---4---4---4---5---5---5---5---0---0---0---0---0---0---0--|
e]------------------------------------------------------------|

Really did it this time. The Lord looks down and begins to cry.

e]---------------------------------------------------------------|
b]-------6---------------7---------------2-------------0---------|
g]---6-------6-------7-------7-------2-------2-----1-------1-----|
d]---------------------------------------------------------------|
a]-4---4---4---4---5---5---5---5---0---0---0---2-2---2---2---2---|
e]---------------------------------------------------------------|


                                        The day you said-
e]---------------------------------------------------------------|
b]------7-------7--------7-------------6-------6--------6--------|
g]---7------7-------7--------7-----7-------7-------7-------7-----|
d]---------------------------------------------------------------|
a]-5---5---5---5---5---5---5---5-5---5---5---5---5---5---5---5---|
e]---------------------------------------------------------------|

goodbye
e]--------------------------------|
b]-------2-------2-------2--------|
g]---2-------2-------2-------2----|  X2
d]--------------------------------|
a]-0---0---0---0---0---0---0---0--|
e]--------------------------------|


And I know you’ve been abandoned. But don't-

e]--------------------------------------------------------------|
b]-------7-------7-------7-------------9-------9-------9--------|
g]---7-------7-------7-------7-----9-------9-------9-------9----|
d]--------------------------------------------------------------|
a]-5---5---5---5---5---5---5---5-7---7---7---7---7---7---7---7--|
e]--------------------------------------------------------------|

abandon sh*t on me

e]----------------------------------------------------------------------|
b]-------10------10------10---------------14-------14---------14--------|
g]---11------11------11------11------14--------14--------14--------14---|
d]----------------------------------------------------------------------|
a]-9---9---9---9---9---9---9---9--12---12---12---12---12---12---12---12-|
e]----------------------------------------------------------------------|

Just know like a Winter white as snow. You've been-

e]--------------------------------------------------------------|
b]-------7-------7-------7-------------9-------9-------9--------|
g]---7-------7-------7-------7-----9-------9-------9-------9----|
d]--------------------------------------------------------------|
a]-5---5---5---5---5---5---5---5-7---7---7---7---7---7---7---7--|
e]--------------------------------------------------------------|

 forgiven. Come back to me.
e]----------------------------------------------------------------------|
b]-------10------10------10---------------14-------14---------14--------|
g]---11------11------11------11------14--------14--------14--------14---|
d]----------------------------------------------------------------------|
a]-9---9---9---9---9---9---9---9--12---12---12---12---12---12---12---12-|
e]----------------------------------------------------------------------|

And I know right now that don't mean anything.

e]--------------------------------|
b]-------7-------------9----------|
g]---7-------7-----9-------9------|
d]--------------------------------|
a]-5---5---5---5-7---7---7---7----|
e]--------------------------------|

e]--------------------------------|
b]-------2-------2-------2--------|
g]---2-------2-------2-------2----|
d]--------------------------------|
a]-0---0---0---0---0---0---0---0--|
e]--------------------------------|


That is just the whole first verse, but it basically does the same thing throughout the 
song.

Anyways, This was my first time ever doing one of these, so sorry if it doesn't look 
I didn't put down any of the slides or anything that it sounds like Andy is doing because I 
know how. These are just the basic notes you pick.
            
Submit corrections

comments powered by Disqus
↑ Back to top | Manchester Orchestra Tabs for Plat It Again Sam You Dont Have Any Feathers. Lyrics for acoustic guitar and electric guitar. Tablatures and chords are parodies/interpretations of the original songs. You may use it for private study, scholarship, research or language learning purposes only