» » »

Mighty Tabs (ver.1)

Artists:  A B C D E F G H I J K L M N O P Q R S T U V W X Y Z # 

Mighty Tabs (ver.1)

Manchester Orchestra
Rating:
0/5 (0 votes)

Hard to play? Try these video lessons and learn fast.
                This is just a rough version I've come up with to play along with it.
Tuning: Drop C

intro
D|--------------------------------------------------------------------|
A|--------------------------------------------------------------------|
F|--------------------------------------------------------------------|
C|-8-7-5--------------------------------------------------------------|
G|-8-7-5--------------------------------------------------------------|
C|-8-7-5---3bp0--0h3bp0-3b-3b-3bp0-0--/12--12--15b-15b-15b-15p12-12b--|

verses                                        little riff
D|----------------------------------------|  |------------------|
A|----------------------------------------|  |------------------|
F|----------------------------------------|  |--11/12\11/12\11--|
C|-3-3-3-3-5-5-5-5-0-0-0-0-0-0-0-0--------|  |------------------|
G|-3-3-3-3-5-5-5-5-0-0-0-0-0-0-0-0--------|x4|------------------|
C|-3-3-3-3-5-5-5-5-0-0-0-0-0-0-0-0--------|  |------------------|

2nd part of verses
D|---------------------------------|  |-------------------------------|
A|---------------------------------|  |-5th time----------------------|
F|---------------------------------|  |-------------------------------|
C|-8-8-8-8-7-7-7-7-5-5-5-5-5-5-5-5-|x4|6-6-6-6-6-6-6-6-5-5-5-5-5-5-5-5|
G|-8-8-8-8-7-7-7-7-5-5-5-5-5-5-5-5-|  |6-6-6-6-6-6-6-6-5-5-5-5-5-5-5-5|
C|-8-8-8-8-7-7-7-7-5-5-5-5-5-5-5-5-|  |6-6-6-6-6-6-6-6-5-5-5-5-5-5-5-5|

Breakdown part at 2:00
the 3's are optional
D|---------------------------------------------|
A|---------------------------------------------|
F|---------------------------------------------|
C|-8-7-5--7-5-0-3-0-0-0-3-0-0-0-3-0-0-0-0-3-0-0|
G|-8-7-5--7-5-0-3-0-0-0-3-0-0-0-3-0-0-0-0-3-0-0|x3
C|-8-7-5--7-5-0-3-0-0-0-3-0-0-0-3-0-0-0-0-3-0-0|

ending part. 
D|---------------------------------|
A|---------------------------------|
F|---------------------------------|
C|-7-7-7-7-8-8-8-8-3-3-3-3-3-3-3-3-|
G|-7-7-7-7-8-8-8-8-3-3-3-3-3-3-3-3-|
C|-7-7-7-7-8-8-8-8-3-3-3-3-3-3-3-3-|
            
Hard to play? Try these video lessons and learn fast. | Correct




comments powered by Disqus
↑ Back to top | Tablatures and chords are parodies/interpretations of the original songs. You may use it for private study, scholarship, research or language learning purposes only