» » »

La-di-da Tabs (ver.1)

Artists:  A B C D E F G H I J K L M N O P Q R S T U V W X Y Z # 

La-di-da Tabs (ver.1)

Manchester Orchestra
Rating:
5/5 (3 votes)

Hard to play? Try these video lessons and learn fast.
                Capo 2nd fret.


Fingerpicked


Intro/Verse
e------------------------------------------0------0-------0----------|
b--------1-------1-------1---------------1-------1------1------------|
g------0-------0-------0---------0-----2-------0------2------------0-|
d----2-------0-------2---------0-----3-------2------3------------0---| 6x
a--3-------2-------0---------2---------------------------------2-----|
e--------------------------3---------------------------------3-------|


Pre-ChOrus
e-----------0------------------0--------------------------|
b---------0---0--------------0---0------------------------|
g-------0-------0----------0-------0---------2------------|
d-----2------------2-----2-----------------3---3---3------|
a---2-----------------2------------------3-------3---3----|
e-0------------------------------------1---------------1--|


Chorus/Verse 2
e------------------------------------------0------0-------0----------|
b--------1-------1-------1---------------1-------1------1------------|
g------0-------0-------0---------0-----2-------0------2------------0-|
d----2-------0-------2---------0-----3-------2------3------------0---| 6x
a--3-------2-------0---------2---------------------------------2-----|
e--------------------------3---------------------------------3-------|


Pre-Chorus 2
e-------0----------------0------------------------------|
b---------0---0------------0---0------------------------|
g-----------0---0------------0---0---------2------------|
d-----2----------------2-----------------3---3---3------|
a---2----------------2-----------------3-------3---3----|
e-0----------------0-----------------1---------------1--|

Chorus
e------------------------------------------0------0-------0----------|
b--------1-------1-------1---------------1-------1------1------------|
g------0-------0-------0---------0-----2-------0------2------------0-|
d----2-------0-------2---------0-----3-------2------3------------0---| 4x
a--3-------2-------0---------2---------------------------------2-----|
e--------------------------3---------------------------------3-------|

4th time end on C Chord


Chorus [epic part] [STRUM]
e-0------0------0------0------1-----3-|
b-1------1------1------1------1-----3-|
g-0-x2---0-x2---2-x2---0-x2---2-x7--0-|
d-2------0------2------0------3-----0-|  8x
a-3------3-------------2------3-----2-|
e----------------------3------1-----3-|


Back to Fingerpicking.
Outro
e------------------------------------------0------0-------0----------|
b--------1-------1-------1---------------1-------1------1------------|
g------0-------0-------0---------0-----2-------0------2------------0-|
d----2-------0-------2---------0-----3-------2------3------------0---| 3x
a--3-------2-------0---------2---------------------------------2-----|
e--------------------------3---------------------------------3-------|


e------------------------------------------0------0-------0--------0------0----------|
b--------1-------1-------1---------------1-------1------1--------1------1------------|
g------0-------0-------0---------0-----2-------0------2--------0------2------------0-|
d----2-------0-------2---------0-----3-------2------3--------2------3------------0---|
a--3-------2-------0---------2-------------------------------------------------2-----|
e--------------------------3-------------------------------------------------3-------|

End on C
            
Hard to play? Try these video lessons and learn fast. | Correct




comments powered by Disqus
↑ Back to top | Tablatures and chords are parodies/interpretations of the original songs. You may use it for private study, scholarship, research or language learning purposes only