» » »

Manchester Orchestra, I Was A Lid Tabs (ver.1)

Artists:  A B C D E F G H I J K L M N O P Q R S T U V W X Y Z # 

I Was A Lid Tabs (ver.1)

Manchester Orchestra Tabs
Rating:
5/5 (2 votes)
I Was A Lid lessons Tabs too difficult? Try these video lessons and learn fast
                This isn't perfect, but it should be pretty close.

Intro
|----------------------------------------------------------------------|
|----------------------------------------------------------------------|
|----------------------------------------------------------------------|
|-------------------------------------6-6-6-6-6-6-6-6-8-8-8-8-8-6-6-6--|x2
|--6-8-8-8-8-8-8-8-6-6-8-8-8-8-8-8-8--4-4-4-4-4-4-4-4-4-4-4-4-4-4-4-4--|
|--6-6-6-6-6-6-6-6-6-6-6-6-6-6-6-6-6-----------------------------------|

Verse 
Guitar 1 continues intro riff x 7 then
|---------------------------------------|
|---------------------------------------|
|-----------6--------------6------------|
|--8--------6-x4---8-------6-x12ish-----|
|--8-x4-----4------8-x4----4------------|
|--6---------------6--------------------|

Guitar 2 comes in after 4th time with
|--------------------|
|--------------------|
|------10------6-----|
|--6/8-----8/6-------|
|--------------------|
|--------------------|

|---------------------------------------------|
|---------------------------------------------|
|------10-------6---------10-------6-8--------|
|--6/8------8/6-------6/8------8/6------------|x2
|---------------------------------------------|
|---------------------------------------------|

Bridge A
|--------------------------------------------|
|--------------------------------------------|
|--8-------------------8------------10-------|
|--8-x16--4-----8------8-x16--4-----10-x8----|
|--6------4-x8--8-x8---6------4-x8--8--------|
|---------2-----6-------------2--------------|

Verse
Guitar 1 plays intro riff x4
Gutar 2
|--------------------------------------------13-------9-------13-------9-|
|---------------------------------------9/11-----11/9----9/11-----11/9---|
|------10-------6-------10-------6-8-------------------------------------|
|--6/8------8/6-----6/8------8/6-----------------------------------------|
|------------------------------------------------------------------------|
|------------------------------------------------------------------------|

Bridge A
|--------------------------------------------|
|--------------------------------------------|
|--8-------------------8------------10-------|
|--8-x16--4-----8------8-x16--4-----10-x8----|x2
|--6------4-x8--8-x8---6------4-x8--8--------|
|---------2-----6-------------2--------------|

Bridge B
Guitar1
|--------------|
|--------------|
|--------6-----|
|-8------6-x16-|x2
|-8-x16--4-----|
|-6------------|


Guitar2
|---------------------------------|
|---------------------------------|
|---------------------------------|
|---------------------------------|
|---------------------------------|
|-6-8-9-9/8/6-4-1---6-8-9-9/8/6-4-|

Bridge C (both guitars play the same from here on)
|------------------------------------------------------------|
|------------------------------------------------------------|
|------------------------------------------------------------|
|--8------4-----3------8------4----(---------------------6)--|
|--8-x16--4-x8--3-x8---8-x16--4-x16(but kind of bends to 6)--|
|--6------2-----1------6------2----(---------------------4)--|

|--------------|
|--------------|
|--------6-----|
|-8------6-x16-|x2
|-8-x16--4-----|
|-6------------|

Break

Last Part 
|--------------------------------------------|
|--------------------------------------------|
|--8-------------------8------------10-------|
|--8-x16--4-----8------8-x16--4-----10-x8----|
|--6------4-x8--8-x8---6------4-x8--8--------|
|---------2-----6-------------2--------------|

|--------------------------------------------|
|--------------------------------------------|
|--8-------------------8------------6--------|
|--8-x16--4-----8------8-x16--4-----6-x8-----|
|--6------4-x8--8-x8---6------4-x8--4--------|
|---------2-----6-------------2--------------|

|--------------------------------------------|
|--------------------------------------------|
|--8-------------------8---------------------|
|--8-x16--4-----8------8-x16--4-----8-x8-----|
|--6------4-x8--8-x8---6------4-x8--8--------|
|---------2-----6-------------2-----6--------|

|---------------------------------|
|---------------------------------|
|---------------------------------|
|---------------------------------|
|---------------------------------|
|-6-8-9-9/8/6-4-1---6-8-9-9/8/6-4-|
            
Submit corrections

comments powered by Disqus
↑ Back to top | Manchester Orchestra Tabs for I Was A Lid. Lyrics for acoustic guitar and electric guitar. Tablatures and chords are parodies/interpretations of the original songs. You may use it for private study, scholarship, research or language learning purposes only