» » »

I've Got Friends Tabs (ver.1)

Artists:  A B C D E F G H I J K L M N O P Q R S T U V W X Y Z # 

I've Got Friends Tabs (ver.1)

Manchester Orchestra
Rating:
0/5 (0 votes)

Hard to play? Try these video lessons and learn fast.
                -------------------------------------------------------------------------------
-------------------------------------------------------------------------------

Tuning: 1/2 step down 

Great song off 'Mean Everythng To Nothing'.  Not perfect, but it's a start.  

Intro/Verse
e|-------4-----4-----4------------4-----4------------------------------------|
B|---5-----5-----5-----5------5-----5-----5----------------------------------|
G|-4---4-----4-----4-----4--5---5-----5-----5--------------------------------|
D|---------------------------------------------------------------------------|
A|---------------------------------------------------------------------------|
E|---------------------------------------------------------------------------|

Chorus
e|---3---3-------------------------------------------------------------------|
B|-1-3-1-3-1-----------------------------------------------------------------|
G|-0-0-0-0-2-----------------------------------------------------------------|
D|-2-0-2-0-2-----------------------------------------------------------------|
A|-3-2-3-2---3-5-7b9b7-------------------------------------------------------|
E|---3---3-------------------------------------------------------------------|

Chorus Pt. II (Guitar 1)
e|---1-----------------------------------------------------------------------|
B|-0-1-1--------0------------------------------------------------------------|
G|-1-2-0-1------1~-----------------------------------------------------------|
D|-2-3-2-2------2~-----------------------------------------------------------|
A|-2-3-3-2------2~-----------------------------------------------------------|
E|-0-1---0------0~-----------------------------------------------------------|

Chorus Pt. II (Guitar 1) 

e|------------------|-----------------------3-------------------------------|
B|------------------|--12/-14/-12-10-9-10-9-5-------------------------------|
G|------------------|---x/--x/--x--x-x--x-x-x-------------------------------|
D|-------9-7-6------|---9/-11---9--7-6--7-6-2-------------------------------|
A|-------x-x-x------|-------------------------------------------------------|
E|-------7-5-4------|-------------------------------------------------------|

Verse II (Guitar 2; Guitar 1 does intro riff)
e|---------------------------------------------------------------------------|
B|-0--1----------------------------------------------------------------------|
G|-1--0----------------------------------------------------------------------|
D|-2--2----------------------------------------------------------------------|
A|-2--3----------------------------------------------------------------------|
E|-0-------------------------------------------------------------------------|

| /  slide up
| \  slide down
| h  hammer-on
| p  pull-off
| ~  vibrato
| +  harmonic
| x  Mute note
===============================================================================
            
Hard to play? Try these video lessons and learn fast. | Correct




comments powered by Disqus
↑ Back to top | Tablatures and chords are parodies/interpretations of the original songs. You may use it for private study, scholarship, research or language learning purposes only