» » »

I Can Feel A Hot One Tabs (ver.3)

Artists:  A B C D E F G H I J K L M N O P Q R S T U V W X Y Z # 

I Can Feel A Hot One Tabs (ver.3)

Manchester Orchestra
Rating:
5/5 (18 votes)

Hard to play? Try these video lessons and learn fast.
                -------------------------------------------------------------------------------
                             I Can Feel A Hot One - Manchester Orchestra
-------------------------------------------------------------------------------
beautifully simple song, i believe it was in episode 3 of gossip girl which is cool i 
depending on how you look at it. i enjoy that theyre getting recognition. get the new 
at your local indie store.
ps: ignore the spacing between notes, just play along with the song (im rushing this)
Tuning:half step down then dropped c#
Intro
e|---------------------------------------------------------------------------|
B|---------------------------------------------------------------------------|
G|-------14----------13------------------------------------------------------|
D|----11---11----11----------------------------------------------------------|
A|-12---------12-------------------------------------------------------------|
E|---------------------------------------------------------------------------|
Verses (bend the 13 every once in a while)
e|---------------------------------------------------------------------------|
B|--------------------------------------------10------10--------7-----7------|
G|------14------------------14------13------11--11--11--11-----7-7---7-7-----|
D|----11---11----11------11---11--11-----------------------------------------|
A|-12---------12------12--------12--------9--------9---------5-----5---------|
E|---------------------------------------------------------------------------|

e|---------------------------------------------------------------------------|
B|------9----------9---------------------------------------------------------|
G|----9---9-----9---9--------------------------------------------------------|
D|---------------------------------------------------------------------------|
A|--7--------7---------------------------------------------------------------|
E|---------------------------------------------------------------------------|
Bridge breakdown thing
e|------------------------------------------------------------------------------|
B|------------------------------------------------------------------------------|
G|------------------------------------------------------------------------------|
D|----0-----0--------------7------7---------4----2--------0---------------------|
A|---0-0--0---0-----------7--7--7-----------------------0--0--------------------|
E|--0---0-------0--------7-----7----------4-----2------0----0-------------------|

thats basically it, everything else repeats. and if youre curious about the piano part 
basically doing the same as guitar and at the end it just goes minor or flat or something


| /  slide up
| \  slide down
| h  hammer-on
| p  pull-off
| ~  vibrato
| +  harmonic
| x  Mute note
===============================================================================
            
Hard to play? Try these video lessons and learn fast. | Correct




comments powered by Disqus
↑ Back to top | Tablatures and chords are parodies/interpretations of the original songs. You may use it for private study, scholarship, research or language learning purposes only