» » »

Manchester Orchestra, I Can Feel A Hot One Tabs (ver.2)

Artists:  A B C D E F G H I J K L M N O P Q R S T U V W X Y Z # 

I Can Feel A Hot One Tabs (ver.2)

Manchester Orchestra Tabs
 Rating:
4/5 (12 votes)
I Can Feel A Hot One lessons Tabs too difficult? Try these video lessons and learn fast
                Intro
e-------------------------------------|
B-------------------------------------|
G--------13------------12~------------|
D-----10----10------10----------------| 2 Times
A--11------------11-------------------|
E-------------------------------------|

Verse
e---------------------------------------------------------------------------|
B---------------------------------------------------------------------------|
G--------13------------12~--------13------------12~-------------------------|
D-----10----10------10---------10----10------10-----------------------------|
A--11------------11---------11------------11--------------------------------|
E---------------------------------------------------------------------------|

I can feel a hot one taking me down, for a moment i could feel the force.

e---------------------------------------------------------------------------|
B-------9------------9~---------6--------------8----------------------------|
G----10---10------10----------6---6---------8-------------------------------|
D---------------------------------------------------------------------------|
A--8-----------8---------4--------------/6----------------------------------|
E---------------------------------------------------------------------------|
Fainted to the point of tears, and you were holding on to make a point, what's the point?

Intro
e-------------------------------------|
B-------------------------------------|
G--------13------------12~------------|
D-----10----10------10----------------| 2 Times
A--11------------11-------------------|
E-------------------------------------|

Verse
e---------------------------------------------------------------------------|
B---------------------------------------------------------------------------|
G--------13------------12~--------13------------12~-------------------------|
D-----10----10------10---------10----10------10-----------------------------|
A--11------------11---------11------------11--------------------------------|
E---------------------------------------------------------------------------|
I'm but a clean man, stable, and alone man, make it so i won't have to try.

e---------------------------------------------------------------------------|
B-------9------------9~---------6--------------8----------------------------|
G----10---10------10----------6---6---------8----8--------------------------|
D---------------------------------------------------------------------------|
A--8-----------8---------4--------------/6----------------------------------|
E---------------------------------------------------------------------------|
The faces always stay the same, so i face the fact that i'm just fine, i said that i'm 
fine

Intro
e-------------------------------------|
B-------------------------------------|
G--------13------------12~------------|
D-----10----10------10----------------| 2 Times
A--11------------11-------------------|
E-------------------------------------|

(start drums)
Verse
e---------------------------------------------------------------------------|
B---------------------------------------------------------------------------|
G--------13------------12~--------13------------12~-------------------------|
D-----10----10------10---------10----10------10-----------------------------|
A--11------------11---------11------------11--------------------------------|
E---------------------------------------------------------------------------|
I remember, head down, after you had found out, manna is a hell of a drug

e---------------------------------------------------------------------------|
B-------9------------9~---------6--------------8----------------------------|
G----10---10------10----------6---6---------8----8--------------------------|
D---------------------------------------------------------------------------|
A--8-----------8---------4--------------/6----------------------------------|
E---------------------------------------------------------------------------|
And i need alittle more, i think. becuase enough is never quite enough, what's enough?

Intro
e-------------------------------------|
B-------------------------------------|
G--------13------------12~------------|
D-----10----10------10----------------| 2 Times
A--11------------11-------------------|
E-------------------------------------|

Verse
e---------------------------------------------------------------------------|
B---------------------------------------------------------------------------|
G--------13------------12~--------13------------12~-------------------------|
D-----10----10------10---------10----10------10-----------------------------|
A--11------------11---------11------------11--------------------------------|
E---------------------------------------------------------------------------|
I took it like a grown man crying on the pavement hoping you would show your face

e---------------------------------------------------------------------------|
B-------9------------9~---------6--------------9----------------------------|
G----10---10------10----------6---6---------8-------------------------------|
D---------------------------------------------------------------------------|
A--8-----------8---------4--------------/6----------------------------------|
E---------------------------------------------------------------------------|
But i haven't heard a word you've said, in at least a couple hundred days, what'd you say?

Intro
e-------------------------------------|
B-------------------------------------|
G--------13------------12~------------|
D-----10----10------10----------------| 2 Times
A--11------------11-------------------|
E-------------------------------------|

Verse
e---------------------------------------------------------------------------|
B---------------------------------------------------------------------------|
G--------13------------12~--------13------------12~-------------------------|
D-----10----10------10---------10----10------10-----------------------------|
A--11------------11---------11------------11--------------------------------|
E---------------------------------------------------------------------------|
I was in the front seat, shaking it out and i was asking if you felt alright

e---------------------------------------------------------------------------|
B-------9------------9~---------6--------------8----------------------------|
G----10---10------10----------6---6---------8-----8-------------------------|
D---------------------------------------------------------------------------|
A--8-----------8---------4--------------/6----------------------------------|
E---------------------------------------------------------------------------|
I never want to hear the truth, i want to hear your ovoice, it sounded fine, my voice, 
sounded fine

Intro
e-------------------------------------|
B-------------------------------------|
G--------13------------12~------------|
D-----10----10------10----------------| 2 Times
A--11------------11-------------------|
E-------------------------------------|

Verse
e---------------------------------------------------------------------------|
B---------------------------------------------------------------------------|
G--------13------------12~--------13------------12~-------------------------|
D-----10----10------10---------10----10------10-----------------------------|
A--11------------11---------11------------11--------------------------------|
E---------------------------------------------------------------------------|
I could feel my heartbeat taking me down and for the moment, i would sleep alright

e---------------------------------------------------------------------------|
B-------9------------9~---------6--------------8----------------------------|
G----10---10------10----------6---6---------8-----8-------------------------|
D---------------------------------------------------------------------------|
A--8-----------8---------4--------------/6----------------------------------|
E---------------------------------------------------------------------------|
I'm dealing with a selfish fear, to keep me up another restless night, another restless night.

Intro
e-------------------------------------|
B-------------------------------------|
G--------13------------12~------------|
D-----10----10------10----------------| 2 Times
A--11------------11-------------------|
E-------------------------------------|

Last Verse
e---------------------------------------------------------------------------|
B---------------------------------------------------------------------------|
G---------------------------------------------------------------------------|
D-------11------------6---------10------------------11-----------11---------|
A----11----11------6----6----8----------13------11------11----11----11------|
E--9------------4-------------------11-------9--------------9---------------|
The blood was dry, it was sober. The feeling of audible cracks.

e---------------------------------------------------------------------------|
B---------------------------------------------------------------------------|
G---------------------------------------------------------------------------|
D-------11------------6---------10------------------11-----------11---------|
A----11----11------6----6----8----------13------11------11----11----11------|
E--9------------4-------------------11-------9--------------9---------------|
And i could tell it was over, from the curtains that hung from your neck

e---------------------------------------------------------------------------|
B---------------------------------------------------------------------------|
G---------------------------------------------------------------------------|
D-------11------------6---------10------------------11-----------11---------|
A----11----11------6----6----8----------13------11------11----11----11------|
E--9------------4-------------------11-------9--------------9---------------|
And i realized that when you were perfect and my teeth ripping out of my head

e---------------------------------------------------------------------------|
B---------------------------------------------------------------------------|
G---------------------------------------------------------------------------|
D-------11------------6---------10------------------11-----------11---------|
A----11----11------6----6----8----------13------11------11----11----11------|
E--9------------4-------------------11-------9--------------9---------------|
and it looked like a painting i once knew, back when my thoughts weren't entirely intact

Piano parts for
"To pray for what i thought were angels. Ended up being ambulances. And the Lord showed 
dreams
 of my daughter, she was crying inside your stomach.

And i Felt love again."

Intro
e-------------------------------------|
B-------------------------------------|
G--------13------------12~------------|
D-----10----10------10----------------| 2 Times
A--11------------11-------------------|
E-------------------------------------|


e---------------------------------------------------------------------------|
B---------------------------------------------------------------------------|
G--------13------------12~--------13------------12~-------------------------|
D-----10----10------10---------10----10------10-----------------------------|
A--11------------11---------11------------11--------------------------------|
E---------------------------------------------------------------------------|

e---------------------------------------------------------------------------|
B-------9------------9~---------6--------------8----------------------------|
G----10---10------10----------6---6---------8-----8-------------------------|
D---------------------------------------------------------------------------|
A--8-----------8---------4--------------/6----------------------------------|
E---------------------------------------------------------------------------|

Intro
e-------------------------------------|
B-------------------------------------|
G--------13------------12~------------|
D-----10----10------10----------------| 2 Times
A--11------------11-------------------|
E-------------------------------------|

e---------------------------------------------------------------------------|
B---------------------------------------------------------------------------|
G--------13------------12~--------13------------12~-------------------------|
D-----10----10------10---------10----10------10-----------------------------|
A--11------------11---------11------------11--------------------------------|
E---------------------------------------------------------------------------|

e---------------------------------------------------------------------------|
B-------9------------9~---------6--------------8----------------------------|
G----10---10------10----------6---6---------8-----8~--Fade------------------|
D---------------------------------------------------------------------------|
A--8-----------8---------4--------------/6----------------------------------|
E---------------------------------------------------------------------------|
            
Submit corrections

comments powered by Disqus
↑ Back to top | Manchester Orchestra Tabs for I Can Feel A Hot One. Lyrics for acoustic guitar and electric guitar. Tablatures and chords are parodies/interpretations of the original songs. You may use it for private study, scholarship, research or language learning purposes only