>
 >
I Can Barely Breathe

I Can Barely Breathe Bass Tabs

Manchester Orchestra - I Can Barely Breathe chords, tabs, tablatures, lyrics

Guitar lessons | Add/correct | Request | Top 50 tabs Artists:  A B C D E F G H I J K L M N O P Q R S T U V W X Y Z 0-9

I Can Barely Breathe Bass Tabs – Manchester Orchestra

CD, Sheet music, Poster

Do you like I Can Barely Breathe? Share with your friends now
Bass TabsChordsChords v2TabsUkulele
0:42
G-----------------------|
D--2222222200--0-0-0----|
A------------3----3-----| x6
E-----------------------|

1:07
G-----------------------|
D----------00--0-0-0----|
A--33333333--3----3-----| x1
E-----------------------|

1:12
G-----------------------|
D--2222222200--0-0-0----|
A------------3----3-----| x2
E-----------------------|

1:20
G--------|
D--2~----|
A--------|
E--------|

1:24
G-----------------------|
D--2222222200--0-0-0----|
A------------3----3-----| x1
E-----------------------|

1:28
G-----------------------|
D----------00--0-0-0----|
A--33333333--3----3-----| x1
E-----------------------|

1:32
G-----------------------|
D--2222222200--0-0-0----|
A------------3----3-----| x2
E-----------------------|

1:41
G--------|
D--------|
A--3~----| x1
E--------|

1:57
G----------------------------------------------|
D------0~--2~--5~------------------------------|
A--3~--------------3~--2-----------------------| x1
E------------------------3-0000000000000000----|

2:14
G---------------------------------------|
D----------000000-022222202555575-------|
A--33333323------3---------------7\3----| x3
E---------------------------------------|

2:38
G------------------------|
D----------000000-0------|
A--33333323------3-3~----| x1
E------------------------|

2:59
G--------------------------------------|
D--------------------------------------|
A--333333332222220----------------2----| x2
E-----------------3000000023333535-----|

3:15
G---------------------------------------|
D----------000000-022222202555575-------|
A--33333323------3---------------7\3----| x4
E---------------------------------------|

3:49
G--------------------------------------|
D--------------------------------------|
A--3-3-3-3-2-2-2-2---------------------| x2
E------------------0-0-0-0-3-3-3-3-----|

4:05
G--------------------------------------|
D--------------------------------------|
A--333333332222220----------------2----| x2
E-----------------3000000023333535-----|

4:21
G--------------------------------------|
D--------------------------------------|
A--3333335522222200---------------2----| x2
E------------------000000023333535-----|

4:38
G-------------------|
D-------------------|
A--3~--2~-----------| x1
E---------3-5-0~----|





Comments


Popular Manchester Orchestra tabs & chords
Virgin Bass Tabs
Do You Really Like Being Alone 1 Chords
Don't Let Them See You Cry Chords
Goodnight My Moonlight Friends Chords
Virgin 2 Chords
I Can Barely Breathe Tabs
Slow To Learn Tabs
Top Notch Tabs
If I Were To Die Ukulele
Ive Got Friends Ukulele


Song lyrics



↑ Back to top | Tablatures and chords are parodies/interpretations of the original songs. You may use it for private study, scholarship, research or language learning purposes only
© 2014 AZChords.com Contact us | Privacy policy | DMCA | Add/correct tabs | Request tabs | Top 50 tabs