» » »

Manchester Orchestra, Golden Ticket Tabs (ver.1)

Artists:  A B C D E F G H I J K L M N O P Q R S T U V W X Y Z # 

Golden Ticket Tabs (ver.1)

Manchester Orchestra Tabs
 Rating:
4/5 (6 votes)
Golden Ticket lessons Tabs too difficult? Try these video lessons and learn fast
                -------------------------------------------------------------------------------
-------------------------------------------------------------------------------

Tuning:Standard

This is the first song i have tabbed so it may not be perfect, but i'm pretty sure its correct.
If You have any comments or questions e-mail me.

Intro ("Please Take Care of....")
e|--------------------------------------------------------------------------|
B|--------------------------------------------------------------------------|
G|--------------------------------------------------------------------------|
D|---------------11---------------------------------------------------------|
A|--12-----------------------9----------------------------------------------|
E|--------------------------------------------------------------------------|

Main Riff  (use delay or triplet effects)
e|--------------------------------------------------------------------------|
B|--------------------------------------------------------------------------|
G|--14-16-14-16-18-16-14-16---19-19-18-18-16-16-14-14-----------------------|
D|--------------------------------------------------------------------------|
A|--------------------------------------------------------------------------|
E|--------------------------------------------------------------------------|

e|--------------------------------------------------------------------------|
B|--14-16-14-16-18-16-14-16---19-19-18-18-16-16-16-18-16-14-----------------|
G|--------------------------------------------------------------------------|
D|--------------------------------------------------------------------------|
A|--------------------------------------------------------------------------|
E|--------------------------------------------------------------------------|

Verse (not sure about this)
e|------0--------0----------------------------------------------------------|
B|-----2-2------3-3-----------0h2-------------------------------------------|
G|----2---2----2---2-----3---2----------------------------------------------|
D|---2-----2--0-----0---4---0-----------------------------------------------|
A|--0--------0---------4----------------------------------------------------|
E|--------------------2-----------------------------------------------------|

Bridge  ("so now that.....")                                 2X
e|--------------------------------------------------------------------------|
B|--------------------------------------------------------------------------|
G|--------------------------------------------------------------------------|
D|--------------------------------------77777777----------------------------|
A|-----77777777---55555555---44444444---55555555----------------------------|
E|-----55555555---33333333---22222222---------------------------------------|

Outro                                                         4X
e|---------------------------------------------------------------------------|
B|---------------------------------------------------------------------------|
G|---------------------------------------------------------------------------|
D|---------------------------------------------------------------------------|
A|-------77777777----55555555------------------------------------------------|
E|-------55555555----33333333------------------------------------------------|

ORDER
Intro
Main Riff
Verse
Main Riff
Verse
Main Riff
Bridge
Verse
Main Riff
Outro

| /  slide up
| \  slide down
| h  hammer-on
| p  pull-off
| ~  vibrato
| +  harmonic
| x  Mute note
===============================================================================
            
Submit corrections

comments powered by Disqus
↑ Back to top | Manchester Orchestra Tabs for Golden Ticket. Lyrics for acoustic guitar and electric guitar. Tablatures and chords are parodies/interpretations of the original songs. You may use it for private study, scholarship, research or language learning purposes only