>
 >
Everything To Nothing 1

Everything To Nothing 1 Guitar Tabs

Manchester Orchestra - Everything To Nothing 1 chords, tabs, tablatures, lyrics

Guitar lessons | Add/correct | Request | Top 50 tabs Artists:  A B C D E F G H I J K L M N O P Q R S T U V W X Y Z 0-9

Everything To Nothing 1 Guitar Tabs – Manchester Orchestra

CD, Sheet music, Poster

Do you like Everything To Nothing 1? Share with your friends now
ChordsTabsTabs v2
----------------------------------------------------------------------------  
Everything to Nothing - Manchester Orchestra
-----------------------------------------------------------------------------

C#|
G#|            this is the tuning.
E |
C#|
F#|
C#|



Intro Part 1 Guitar One:
e|--------|
B|--------|
G|--------|
D|---9----|
A|---7----|
E|---5----|

Intro Part 1 Guitar Two:

e|--------|
B|--------|
G|--------|
D|---0----|
A|---7----|
E|---5----|


Intro Part 2 
Guitar One:

e|----------------------------------------------|
B|----------------------------------------------|
G|---14---13---13---14-14/16---14b16r14--13-----|
D|----------------------------------------------|
A|----------------------------------------------|
E|----------------------------------------------|


Intro Part 2 
Guitar Two:

e|-------------12---14-14/16---14b16r14--12-----|
B|---14---13------------------------------------|
G|----------------------------------------------|
D|----------------------------------------------|
A|----------------------------------------------|
E|----------------------------------------------|


Chorus Riff Guitar One and Two:

e|--------------------------------------|
B|--------------------------------------|
G|---9-x-11-x-13-x-13-x-9-x-8--x-4-x-4--|
D|---0-x-0--x-0--x-0--x-0-x-0--x-0-x-0--|
A|---7-x-9--x-11-x-11-x-7-x-6--x-2-x-2--|
E|---5-x-7--x-9--x-0--x-5-x-4--x-0-x-0--|


Verse
Guitar One:

Mainly Palm Muted,

e|---------------------------------------|
B|---------------------------------------|
G|---9-x-11-x-13-x-13-x-13-x-11-x-4-x-4--|
D|---0-x-0--x-0--x-0--x-0--x-0--x-0-x-0--|
A|---7-x-9--x-11-x-11-x-11-x-9--x-2-x-2--|
E|---5-x-7--x-9--x-9--x-9--x-7--x-0-x-0--|

e|---------------------------------------|
B|---------------------------------------|
G|---9-x-11-x-13-x-13-x-13-x-11-x-4-x-4--|
D|---0-x-0--x-0--x-0--x-0--x-0--x-0-x-0--|
A|---7-x-9--x-11-x-11-x-11-x-9--x-2-x-2--|
E|---5-x-7--x-9--x-0--x-9--x-7--x-0-x-0--|

e|----------------------------------------|
B|----------------------------------------|
G|---13-x-11-x-4-x-9-x-9-x-11-x-4--13tr14-|
D|---0--x-0--x-0-x-0-x-0-x-0--x-0---------|
A|---11-x-9--x-2-x-7-x-7-x-9--x-2---------|
E|---9--x-7--x-0-x-5-x-5-x-7--x-0---------|

e|----------------------------------------|
B|----------------------------------------|
G|---13-x-11-x-4-x-9-x-9-x-11-x-4---------|
D|---0--x-0--x-0-x-0-x-0-x-0--x-0---------|
A|---11-x-9--x-2-x-7-x-7-x-9--x-2---------|
E|---9--x-7--x-0-x-5-x-5-x-7--x-0---------|

Verse
Guitar Two:

Mainly palm muted, and only plays the last two riffs,

e|----------------------------------------|
B|----------------------------------------|
G|---13-x-11-x-4-x-9-x-9-x-11-x-4---------|
D|---0--x-0--x-0-x-0-x-0-x-0--x-0---------|
A|---11-x-9--x-2-x-7-x-7-x-9--x-2---------|
E|---9--x-7--x-0-x-5-x-5-x-7--x-0---------|

e|----------------------------------------|
B|----------------------------------------|
G|---13-x-11-x-4-x-9-x-9-x-11-x-4---------|
D|---0--x-0--x-0-x-0-x-0-x-0--x-0---------|
A|---11-x-9--x-2-x-7-x-7-x-9--x-2---------|
E|---9--x-7--x-0-x-5-x-5-x-7--x-0---------|


Pre-chorus
Guitar One:

e|--------------|
B|--------------|
G|----------13v-|
D|---9~--8~-----|
A|---7~--6~-----|
E|---5~--4~-----|

Guitar Two:

e|-------------|
B|-------------|
G|----------8v-|
D|---0~--0~----|
A|---7~--6~----|
E|---5~--4~----|



Chorus Riff Guitar One and Two:

e|--------------------------------------|
B|--------------------------------------|
G|---9-x-11-x-13-x-13-x-9-x-8--x-4-x-4--|
D|---0-x-0--x-0--x-0--x-0-x-0--x-0-x-0--|
A|---7-x-9--x-11-x-11-x-7-x-6--x-2-x-2--|
E|---5-x-7--x-9--x-0--x-5-x-4--x-0-x-0--|


Verse
Guitar One:

Palm Muted,

e|---------------------------------------|
B|---------------------------------------|
G|---9-x-11-x-13-x-13-x-13-x-11-x-4-x-4--|
D|---0-x-0--x-0--x-0--x-0--x-0--x-0-x-0--|
A|---7-x-9--x-11-x-11-x-11-x-9--x-2-x-2--|
E|---5-x-7--x-9--x-9--x-9--x-7--x-0-x-0--|

e|---------------------------------------|
B|---------------------------------------|
G|---9-x-11-x-13-x-13-x-13-x-11-x-4-x-4--|
D|---0-x-0--x-0--x-0--x-0--x-0--x-0-x-0--|
A|---7-x-9--x-11-x-11-x-11-x-9--x-2-x-2--|
E|---5-x-7--x-9--x-0--x-9--x-7--x-0-x-0--|


then for the last two measures, openly played,


e|--16----16-------etc---|
B|----17----17-----------|
G|------16----16---------|
D|-----------------------|
A|-----------------------|
E|-----------------------|


Verse
Guitar Two:

This kicks in towards the end of the verse,


e|------------------etc----|
B|-12-10-12-10-9~----------|
G|-13-11-13-11-9~----------|
D|-------------------------|
A|-------------------------|
E|-------------------------|

Then theres another chorus, the same riff.

Chorus Riff Guitar One and Two:

e|--------------------------------------|
B|--------------------------------------|
G|---9-x-11-x-13-x-13-x-9-x-8--x-4-x-4--|
D|---0-x-0--x-0--x-0--x-0-x-0--x-0-x-0--|
A|---7-x-9--x-11-x-11-x-7-x-6--x-2-x-2--|
E|---5-x-7--x-9--x-0--x-5-x-4--x-0-x-0--|

(There's the occasional note going on in the background but they're pretty hard to distinguish)

Bridge
Both Guitars Clean:

Not sure about this, but 

e|------------------------------------------------12----------|
B|---------------------------------------------12----12-------|
G|-------9-----------8------------13--------13----------13----|
D|-----0---0-------0---0--------0----0------------------------|
A|---7-------7---6-------6---11--------11---------------------|
E|-5-----------4-----------9--------------12--------------12--|

Then a few times

e|--------------------------------------------------------------------------|
B|--------------------------------------------------------------------------|
G|--999999999999-2-111-2-111--131313-< 13's----111111 





Comments


Popular Manchester Orchestra tabs & chords
I Can Barely Breathe Chords
Leaky Breaks Chords
Leave It Alone Chords
Virgin 1 Chords
Pale Black Eye Tabs
Slow To LearnIntro Tabs
I Can Barely Breathe Ukulele
If I Were To Die Ukulele
Jimmy He Whispers Ukulele
The Neighborhood Is Bleeding Ukulele


Song lyrics



↑ Back to top | Tablatures and chords are parodies/interpretations of the original songs. You may use it for private study, scholarship, research or language learning purposes only
© 2014 AZChords.com Contact us | Privacy policy | DMCA | Add/correct tabs | Request tabs | Top 50 tabs