>
 >
Alice And Interiors

Alice And Interiors Guitar Tabs

Manchester Orchestra - Alice And Interiors chords, tabs, tablatures, lyrics

Guitar lessons | Add/correct | Request | Top 50 tabs Artists:  A B C D E F G H I J K L M N O P Q R S T U V W X Y Z 0-9

Alice And Interiors Guitar Tabs – Manchester Orchestra

CD, Sheet music, Poster

Do you like Alice And Interiors? Share with your friends now
ChordsTabsUkulele
Tuning - Standard
This is as much as I could figure out.
Great song that they don't seem to play live anymore.

Intro and verse 
e|--------------------------------------------|
b|---------------------2----------------------|
g|---2-4-2-4/6-4-2---2----2-4-2-4/6-4-2-1-2---|
d|-0---------------0------------------------4-|
a|--------------------------------------------|
e|--------------------------------------------|

e|------------------2------------------2------|
b|----------------2------------------2---2----|
g|-2-4-2-1-2----2-----2-4-2-1-2----2----------|
d|-----------4------------------4-------------|
a|--------------------------------------------|
e|--------------------------------------------|

1:01
e|------------------------------|-------------------|
b|------------------------------|-------------------|
g|  this x 3                    | then this once    |
d|------------------------------|-------------------|
a|-5(x8)------------------------|-5(x8)-------------|
e|-------2(x8)-5(x8)-2(x4)-0(x4)|-------5(x8)-0(x16)|

1:31 they play intro again with something like this.
Its not as simple as this but I can't hear it well enough.
He goes to these chords but also back and forth to others quickly in between.
Just go crazy with octaves pretty much.
e|--------------------------------|
b|--------------------------------|
g|-9-------11------13------16-----|
d|-x-(x16)-x-(x16)-x-(x16)-x-(x16)|
a|-7-------9-------11------14-----|
e|--------------------------------|

1:39
e|------------------------|
b|   this x2              |
g|------------------------|
d|-4-4-4-4-4-4-4-4--4-4-4-|
a|-4-4-4-4-4-4-4-4--4-4-4-|
e|-2-2-2-2-0-2-0-2--2-2-2-|

1:47
e|-----------------------------|
b|-3-------3-3-3-3-------3-3-3-|
g|-2-------2-2-2-2-------2-2-2-|
d|-0-------0-0-0-0-------0-0-0-|
a|-0-------0-0-0-0-------0-0-0-|
e|-----------------------------|

1:54
e|------------------------|
b|   this x2              |
g|------------------------|
d|-4-4-4-4-4-4-4-4--4-4-4-|
a|-4-4-4-4-4-4-4-4--4-4-4-|
e|-2-2-2-2-0-2-0-2--2-2-2-|

2:02
Intro thing again

2:17 Chorus
e|------------------------------|-------------------|
b|-----this x3------------------|-then this once----|
g|-7----------------------------|-7-----------------|   
d|-7-----4-----7-----4-----2----|-7-----7-----2-----|
a|-5(x8)-4-----7-----4-----2----|-5(x8)-7-----2-----|
e|-------2(x8)-5(x8)-2(x4)-0(x4)|-------5(x8)-0(x16)|

The rest is just repeats of the parts above.





Comments


Popular Manchester Orchestra tabs & chords
Apprehension Chords
Don't Let Them See You Cry 1 Chords
My Friend Marcus Chords
I Am A Book, Torn Tabs
La-di-da Tabs
Pale Black Eye Tabs
The Only One Tabs
I Remembered That I Wanted To Kiss Kill You Ukulele
Simple Math Live Ukulele
The River Ukulele


Song lyrics



↑ Back to top | Tablatures and chords are parodies/interpretations of the original songs. You may use it for private study, scholarship, research or language learning purposes only
© 2014 AZChords.com Contact us | Privacy policy | DMCA | Add/correct tabs | Request tabs | Top 50 tabs